Satanic Surfers - Seed Of Fear Chords & Tabs

 

Seed Of Fear Chords & Tabs

Satanic Surfers Chords & Tabs

Version: 1 Type: Tab 0 ratings
1 star 2 stars 3 stars 4 stars 5 stars
comments

Seed Of Fear Tab

   
------------------------------------------------------------------------------- 
SEED OF FEAR - Satanic Surfers 
------------------------------------------------------------------------------- 

By: Paul Solinas 

Intro : 
3x 
e|--------------------------------------------------------------------| 
B|--------------------------------------------------------------------| 
G|-77-99-11-11-----77-99-11-11-7-7--7-6-4-7-6-4--1111111111-99999-777-| 
D|-------------7-7-------------7-7--7-6-4-7-6-4--1111111111-99999-777-| 
A|-------------7-7-------------5-5--5-4-2-5-4-2--9-9-9-9-9--77777-555-| 
E|-------------5-5----------------------------------------------------| 

Verse1 : 
1x 
e|-----------------------------------------------------------| 
B|-----------------------------------------------------------| 
G|-----9-7-----11-9--6-6-6-7-7-7-----9-7-------6-6-6-7-----7-| 
D|-7-7-9-7-4-4-11-9--6-6-6-7-7-7-7-7-9-7-4-4-4-6-6-6-7-----7-| 
A|-7-7-7-5-4-4-9--7--4-4-4-5-5-5-7-7-7-5-4-4-4-4-4-4-5-----5-| 
E|-5-5-----2-2-------------------5-5-----2-2-2---------------| 
[ Tab from: http://www.guitartabs.cc/tabs/s/satanic_surfers/seed_of_fear_tab.html ]
Verse2 : 
2x 
e|------------2---| 
B|--------------2-| 
G|----6-----------| 
D|-7----7--4------| 
A|-7-------4------| 
E|-5-------2------| 

Verse3 : 
1x 
e|------------------------------------------------------------------------| 
B|------------------------------------------------------------------------| 
G|---------------77777---------------------77777-------1111111111-9999999-| 
D|-222-22-222-22-77777-44444-222-22-222-22-77777-44444-1111111111-9999999-| 
A|-222-22-222-22-55555-44444-222-22-222-22-55555-44444-9-9-9-9-9--7777777-| 
E|-000-00-000-00-------22222-000-00-000-00-------22222--------------------| 

-Verse2 
-Verse3 

Verse 4 : 
1x 
e|---------------------| 
B|---------------------| 
G|--------444444-6-6-6-| 
D|-777777-444444-6-6-6-| 
A|-777777-222222-4-4-4-| 
E|-555555--------------| 

-Intro(Do it 2 times) 
-Verse1 
-Verse2 
-Verse3 
-Verse4(Do it 2 times) 

Outro : 
1x 
e|--------------------------------| 
B|--------------------------------| 
G|-----9-7-----11-9-6-6-6-7-----7-| 
D|-7-7-9-7-4-4-11-9-6-6-6-7-----7-| 
A|-7-7-7-5-4-4-9--7-4-4-4-5-----5-| 
E|-5-5-----2-2--------------------| 

==============================================================================
Comments