Satanic Surfers - Ketty Chords & Tabs

 

Ketty Chords & Tabs

Satanic Surfers Chords & Tabs

Version: 1 Type: Tab 0 ratings
1 star 2 stars 3 stars 4 stars 5 stars
comments

Ketty Tab

   
------------------------------------------------------------------------------- 
KETTY - Satanic Surfers 
------------------------------------------------------------------------------- 

Intro: 
e-|----------------------------------------------------------------------- 
B-|----------------------------------------------------------------------- 
G-|----------------------------------------------------------------------- 
D-|-----------7-5-----------7-5-----------7-5----------------5-5-7-7-9-9-- 
A-|-7-7-7-5-7-5-3-7-7-7-5-7-5-3-7-7-7-5-7-5-3-7-7-7-5-7--7-7-3-3-5-5-7-7-- 
E-|-5-5-5-3-5-----5-5-5-3-5-----5-5-5-3-5-----5-5-5-3-5--5-5-------------- 

e-|------------------------------------------| 
B-|------------------------------------------| 
G-|------------------------------------------| 
D-|-----5-5-7-7-7-7-7-7-7-7-9-9-9-9--9-7-5-4-| 
A-|-7-7-3-3-5-5-5-5-5-5-5-5-7-7-7-7--7-5-3-2-| 
E-|-5-5--------------------------------------| 

Part that keeps reappearing constantly in the song 
e-|-------------------------| 
B-|-------------------------| 
G-|-------------------------| 
D-|---------7-7---------7-7-| 
A-|-7-7-7-5-5-5-7-7-7-5-5-5-| 
E-|-5-5-5-3-----5-5-5-3-----| 
[ Tab from: http://www.guitartabs.cc/tabs/s/satanic_surfers/ketty_tab.html ]
Verse: 
e-|-----------------------------------------------------------------| 
B-|-----------------------------------------------------------------| 
G-|-----------------------------------------------------------------| 
D-|-----------------5-5-5-5-7-7-7-7---------------------------------| 
A-|-7-7-7-7-7-7-7-7-3-3-3-3-5-5-5-5-3-3-3-3-3-3-3-3-5-5-5-5-5-5-5-5-| 
E-|-5-5-5-5-5-5-5-5-----------------1-1-1-1-1-1-1-1-3-3-3-3-3-3-3-3-| 

Chorus: first chorus ends with this: 
e-|-------------------------------------|----------------- 
B-|-------------------------------------|----------------- 
G-|-------------------------------------|----------------- 
D-|-10-10-10-10-----------------5-5-5-5-|----------------- 
A-|--8--8--8--8-5-5-5-5-7-7-7-7-3-3-3-3-|-5-5-5-5-5-5-5-5- 
E-|-------------3-3-3-3-5-5-5-5---------|-3-3-3-3-3-3-3-3- 

2nd chorus ends with this: 
e-|---------------------------------------| 
B-|-----------------------------6-7-8-----| 
G-|---------------------4-5-7-7-----------| 
D-|-----------------5-7-------------------| 
A-|-3-3-3-3-3-3-3-3--------------------5--| 
E-|-1-1-1-1-1-1-1-1--------------------3--| 

-------------------------------------------------------------------------------
Comments