Satanic Surfers - Hard To Be Yourself Chords & Tabs

 

Hard To Be Yourself Chords & Tabs

Satanic Surfers Chords & Tabs

Version: 2 Type: Bass Tab 0 ratings
1 star 2 stars 3 stars 4 stars 5 stars
comments

Hard To Be Yourself Bass Tab

Song: Hard to Be Yourself 
Band: Satanic Surfers
Album: Keep Out
tabbed by: Alberto zorrico3@yahoo.com

ok i guess you'll never play right without listening to the cd                                     
                           
intro:  
G:-------------------------
D:------3-2-2--------------
A:--0-0-------5-3-3-5------ X 2
E:--------------------3-3--

verse:
G:----------------------------------------
D:--------3-2--------------------3-3-2-2-- part A
A:--0>--------5-3-5-3------3>------------- X 2  
E:-----3>-------------3-1>----3>----------

G:------------------------
D:-----3-3-2-2---3-3-2-2-- part B
A:--0>-------------------- X 2
E:-------------3>---------

G:-----------2--------------2---------------------
D:-------------5-3-5-3-2------5-3-5-3-2----------- part C
A:--0>----------------------------------------2>-- 
E:-----1>-3>-------------1>-------------3>-5>-----
[ Tab from: http://www.guitartabs.cc/tabs/s/satanic_surfers/hard_to_be_yourself_btab_ver_2.html ]
chorus:
G:-----5-------------------------------5-6-8-10>--
D:-----------------5-7>--------3-5>-3>------------
A:--3>---3>----7-8---------5-6-------------------- X 2 
E:----------5>----------3>------------------------
                                                                  
bridge:                                                                  
G:----|-------------|--------------
D:----|-------------|-5-5-5--------
A:--0-|-3-3-3-3-3-0-|-------5-5-5--
E:----|-------------|--------------

G:--------------|----------0-0-----0-0-----0-0-------|----
D:-----0>-2>----|----0>-2>-----0-0-----0-0-----0-0---|----
A:--0>-------3>-|-0>-------------------------------0-|-0--
E:--------------|------------------------------------|----

G:----|--------------------------
D:----|-----3-2-2----------------
A:--0-|-0-0-------5-3-3-5--------
E:----|-------------------3-3-3--

intro
verse play part A then part C
chorus

outro:
G:----|-------
D:----|-3>----
A:--3-|----3--
E:----|-------
Comments