Satanic Surfers - Equal Rights Chords & Tabs

 

Equal Rights Chords & Tabs

Satanic Surfers Chords & Tabs

Version: 1 Type: Bass Tab 0 ratings
1 star 2 stars 3 stars 4 stars 5 stars
comments

Equal Rights Bass Tab

Song:Equal Rights

Band:Satanic Surfers    

Album:Spilt With Ten Fott Pole

tabbed by:Adam Woodruff and Stephen Keeler

This is just the intro  can`t figure out the rest sorry

G:---------------------------------------------------------------
D:--6--7---9--7-6-7-6--------------------------------------------
A:---------------------------------------------------------------
E:---------------------------------------------------------------

[ Tab from: http://www.guitartabs.cc/tabs/s/satanic_surfers/equal_rights_btab.html ]
G:--6--7---9--7-6-7-6--------------------------------------------
D:---------------------------------------------------------------
A:---------------------------------------------------------------
E:---------------------------------------------------------------


G:---------------------------------------------------------------
D:-13--12---13-12------------------------------------------------
A:----------------------13-12-10-9-------------------------------
E:---------------------------------------------------------------


G:--15>----12--11------------------------------------------------
D:------------------12--11--9------------------------------------
A:---------------------------------------------------------------
E:---------------------------------------------------------------





Comments