Satanic Surfers - End Of The World Chords & Tabs

 

End Of The World Chords & Tabs

Satanic Surfers Chords & Tabs

Version: 2 Type: Bass Tab 0 ratings
1 star 2 stars 3 stars 4 stars 5 stars
comments

End Of The World Bass Tab

   
Song:End of the World
Band:Satanic Surfers
Album:Keep Out
tabbed by:Sylvain Bussières & alberto zorrico3@yahoo.com

  ok this song was mainly tabbed by Sylvain Bussières, i just added some 
note somewhere

intro X 2
G:---------------------------------|------------------------9-12-9-----------
D:-7-9-10-12-10-9-9-10-12-14-12-10-|-7-9-10-12-10-9-9-10-12--------12-10-12--
A:---------------------------------|-----------------------------------------
E:---------------------------------|-----------------------------------------
       second time strum each note

G:---------------------------------------------
D:-7-9-9-9-7-----------------------------------
A:-----------------0-------------0------0------
E:-----------3-3-3---1-3-0-0-1-3---1-3----1-3--

riff 1  (PART A)
G:------------------------------------9-10-12-14-12--------------------------------
D:-----------7--------9-10-12-10>-----------------------------------7-------8-7----
A:----7-8-10---10-10>-------------12>---------------8-8-8-10-8-8-8---8-8-8------8--
E:-8>------------------------------------------------------------------------------

   (PART B)                           (part changed)
G:--------------------------------------------14-12------------------------
D:-----------7--------9-10-12-10>-----10-12-14------------7-8-10-8-7-------
A:----7-8-10---10-10>-------------12>------------------8>------------10-8--
E:-8>----------------------------------------------------------------------

riff 2
G:--------------------------
D:-------------3>-----------
A:----3>-0>-------3>-0>----- 
E:-1>-------3>----------3>--
[ Tab from: http://www.guitartabs.cc/tabs/s/satanic_surfers/end_of_the_world_btab_ver_2.html ]
riff 3         (changed a little)   (part added!)
G:--------------------3------------------------------------------------
D:-3>----------5>-3-5---3------------------------5-3-----5>-3---3-5-3--
A:----3>-2-3-5------------------1h3--1h3--1h3--3--------------5--------
E:--------------------------1>------------------------3>---------------

     i won't keep saying...
G:---4-5-4---4--------4---------------------------------------------------
D:-7-------7---5>-5-7---7-5-7-5---5---4----7-7-7-5---5--------------------
A:------------------------------3---2---0>---------7---7--3-2-0---0-2-3>--
E:--------------------------------------------------------------3---------

riff 4
G:--------------------------------------------14-12-10---------------------------------
D:-----------7--------9-10-12-10>-----10-12-14------------------------7-8-10-8-7-------
A:----7-8-10---10-10>-------------12>------------------8-8-8-10-8-8-8------------10-8--
E:-8>----------------------------------------------------------------------------------


riff 5              (PART ADDED..........)      |     not sure    |
G:----------------------9----7------------------|--------7--------|
D:-----------------------7-9---9-9-7-9--7---7---|-7-8-10---10-8-7-|
A:----3>-2-3-5-------7>-------------------9---9-|-----------------|
E:-1>---------1>-3>-----------------------------|-----------------|


G:--------------------------------------------------------------
D:--------------------------------------------------------------
A:--------------------------------------------------------------
E:-1-1-1\13/9/7/5/1-1-1\13/9/7/5/3-3-3\13-15-15-15-15-13-12-10--


riff 1 just part A

outro
G:----
D:----
A:-3--
E:----

Well this song is not very easy to tab and it might not be perfect unless 
there were many
adjustments... But there is an improvement compared to the very first 
version!
Comments