Satanic Surfers - Dont Skate On My Ramp Chords & Tabs

 

Dont Skate On My Ramp Chords & Tabs

Satanic Surfers Chords & Tabs

Version: 1 Type: Tab 0 ratings
1 star 2 stars 3 stars 4 stars 5 stars
comments

Dont Skate On My Ramp Tab








Artist : satanic surfers










Artist : satanic surfers

Song  : Don’t skate on my ramp

Standard tuning
: EADgbe

 

I saw lots
of  bass tabs for surfers’s songs, so I
figured out this guitar tab . It’s 100% right , just listen to the song for
riffs order, then go for a punk hardcore set !! It really kicks ass !

Please DON’T
REJECT MY TAB !!

Intro (with
distortion)  x2

-------------------------------------------------------------

---9-9-------------------------------------------------9---

---9-9---7--6-------11-11-----11---9----------------9---

---7-7----------9---11-11---------------11--9---7---7----

----------------------9—9----------------------------------

 

Riff 1

-----------------------9-8-11--6----9-8-9------------------


-9-9-9---11-11-11---9-8-11--6----9-8-9----7--9---------


-9-9-9---11-11-11---7-6-9---4----7-6-7----7--9---------


-7-7-7---9---9--9----------------------------5--7---------

 

Then :  Riff 2

-9-9-----------11----------9-----9---------------------------------


-9-9---9--9---11---9--7---9-----9---7--9--------------------------------


-7-7---9--9---9----9--7---7-----7---7--9---------------------------------


-------7--7---------7--5--------------5--7--------------------

Riff 3 :                                          first
time : 

--9-9----------------------9-----------------------------------------




--9-9---9---4--7--9---7--9------------------9-7-9-----------------
 
[ Tab from: http://www.guitartabs.cc/tabs/s/satanic_surfers/dont_skate_on_my_ramp_tab.html ]
--7-7---9---4--7--9---7--7------------------9-7-9-----------------


--------7---2---5--7--5----------------------7-5-7-----------------

   then
go back to riff2  and for the second riff
3 play this :

                                                                  -9-7-9------------7-----

                                                                  -9-7-9---7-5-4---7-----                                                                                                               -                                                                  7-5-7---7-5-4---5-----

                                                                 
----------5-3-2---------

several times

--2---4---7---9-----9--7--2-------------------------------------------------


--2---4---7---9-----9--7--2-------------------------------------------------


--0---2---5---7-----7--5--0-------------------------------------------------

 

--9--13---7--11-------4-------6--------------------------------


--9--13---7--11----5--4---7--6------------------------------------


--7--11---5--9-----5--2---7--4----------------------------------


--------------------3-------5------------------------------








Comments