Satanic Surfers - Dickweed Chords & Tabs

 

Dickweed Chords & Tabs

Satanic Surfers Chords & Tabs

Version: 1 Type: Tab 0 ratings
1 star 2 stars 3 stars 4 stars 5 stars
comments

Dickweed Tab

   
------------------------------------------------------------------------------- 
DICKWEED - Satanic Surfers 
------------------------------------------------------------------------------- 

bY:Emilio Guinea 

INTRO: 

GUITAR1: 
E |----------------------------------------------- 
B |----------------------------------------------- 
G |----------------------------------------------- 
D |----4-5-4------------------4-5-4------7-7-7---- 
A |-5---------7---------4-5----------7------------ 
E |--------------5-5-5---------------------------- 
[ Tab from: http://www.guitartabs.cc/tabs/s/satanic_surfers/dickweed_tab.html ]
E |----------------------------------------------- 
B |----------------------------------------------- 
G |----------------------------------------------- 
D |------4-5-4-----------------4-5-4-----7-7-7---- 
A |-4-5---------7---------4-5---------7----------- 
E |----------------5-5-5-------------------------- 

GUITAR2: D, A (x4) 

BOTH: D, A (x4) 

VERSE: 
D, G, A, D 
G, D, A, G 
D, G (x2) 

CHORUS: 
A, G 
D-A-G (x4) 

SOLO: Eii, B, A (x4) 

RIFF1: D_____, D-A-G (x2) 

VERSE: (ONLY HALF) 

OUTRO: D_____, C_____, F-G 

-------------------------------------------------------------------------------
Comments