Satanic Surfers - Big Bad Wolf Chords & Tabs

 

Big Bad Wolf Chords & Tabs

Satanic Surfers Chords & Tabs

Version: 1 Type: Tab 0 ratings
1 star 2 stars 3 stars 4 stars 5 stars
comments

Big Bad Wolf Tab

------------------------------------------------------------------------------- 
BIG BAD WOLF - Satanic Surfers 
------------------------------------------------------------------------------- 

By: ADAM DALEY - shazzabarry_bigwigchoke@hotmail.com 

INTRO 
e|-----------------------------------------------5------------/15-12-/17------| 
B|------------------------------------------/10----8-5------------------------| 
G|-------------5--7-------------10--12-----------------7-5--------------------| 
D|---7--7-5----5--7---7--7-5----10--12---7-----------------7------------------| 
A|---7------7--3--5---7------7--8---10---7------------------------------------| 
E|---5----------------5------------------5------------------------------------| 
|-P.M-| 

e|----------------------------------------------------------------------------| 
B|----------------------------------------------------------------------------| 
G|----------------------------------------------------------------------------| 
D|------------------7-5-------------------------------------------------------| 
A|---------5-7----------7-5---------------------------------------------------| 
E|---5-7-8------------------8-7-5---------------------------------------------| 
|---do this part real fast---| 
[ Tab from: http://www.guitartabs.cc/tabs/s/satanic_surfers/big_bad_wolf_tab.html ]
VERSE 
e|----------------------------------------------------------------------------| 
B|----------------------------------------------------------------------------| 
G|---10-----------------------------------------------------------------------| 
D|---10--7--10--3-------------------------------------------------------------| 
A|---8---7--10--3-------repeat-this-8-times-----------------------------------| 
E|-------5--8---1-------------------------------------------------------------| 

CHORUS 
e|----------------------------------------------------------------------------| 
B|----------------------------------------------------------------------------| 
G|----------------------------------------------------------------------------| 
D|---7-7---7---5-5---5---2-2---2---3--3-3-3-3-3-3-3-3-------------------------| 
A|---7-7---7---5-5---5---2-2---2---3--3-3-3-3-3-3-3-3-------------------------| 
E|---5-5---5---3-3---3---0-0---0---1--1-1-1-1-1-1-1-1-------------------------| 
|-P.M-| |-P.M-| |-P.M-| |------P.M------| 

e|----------------------------------------------------------------------------| 
B|----------------------------------------------------------------------------| 
G|----------------------------------------------------------------------------| 
D|---7--5--2--3---7--5--2--3--------------------------------------------------| 
A|---7--5--2--3---7--5--2--3--------------------------------------------------| 
E|---5--3--0--1---5--3--0--1--------------------------------------------------| 

do the verse again and thats basically it 

ROCK ON !!! 

==============================================================================
Comments