Sass Jordan - Make You A Believer Chords & Tabs

 

Make You A Believer Chords & Tabs

Sass Jordan Chords & Tabs

Version: 2 Type: Bass Tab 0 ratings
1 star 2 stars 3 stars 4 stars 5 stars
comments

Make You A Believer Bass Tab

   
Song:   Make you a believer
Artist: Sass Jordan

tabbed by: BaSS P.
e-mail:    gamsbart@yahoo.com

tuning: standard E A D G


no bass during the intro

verse riff1:

G-------------------------------------------------
D-------------------------------------------------   
A--55--0/3/5--3-55--0/3/5----3/4/5--3/4/5--3/4/5--   
E-------------------------------------------------

end of 2nd time: 

riff 1B:

G----------
D----------
A--3-------
E----3-----


riff2

G-----------------------------------------------
D-----------------------------------------------
A--5---0/5---0/5---5--3-------------------------
E-------------------------3---------------------

riff 3

G-----------------------------------------------
D-----------------------------------------------
A----------------------------555----------------
E--555--0--55--0--5--0---333--------------------

G-----------------------------------------------
D-----------------------------------------------
A------------------------333-555----------------
E--555--0--55--0--5--0--------------------------


Chorus

G-------------------------------------------------
D-------------------------------------------------   
A--55--0/3/5--3-55--0/3/5----3/4/5--3/4/5--3/4/5--   
E-------------------------------------------------
[ Tab from: http://www.guitartabs.cc/tabs/s/sass_jordan/make_you_a_believer_btab_ver_2.html ]
rem.: play a bit with the notes A----3---0----5

end of chorus 1:  |   end of chorus 2 = end of chorus 1 (x4) 
                  |             
                  |               plus    
G--------------   |   G-------------------------
D--------------   |   D-------------------------   
A--33----555---   |   A--111---333---0/3/0---555
E-----33-------   |   E-------------------------


after end of chorus 2 : no bass 


then thereīs a slightly different version of riff 3:

letīs call it 

riff 3B :

G-----------------------------------------------
D-----------------------------------------------
A----------------------------555----------------
E--555--0--55--0--5--0---333--------------------

G-----------------------------------------------
D-----------------------------------------------
A----------------------------333-----555--------
E--555--0--55--0--5--0---333-----333------------
                                 ^^^
                                comes 
                                  in


end:                       very end:
hammer on these notes:

G------------              G---------
D------------              D---------
A--55--33--55              A--3---5--
E------------              E----3----


Structure:

intro (no bass)
verse riff 1 (2x)   
riff 1B
riff 2 (4x)
riff 3
chorus (2x)
end of chorus 1
riff 2 (4x)
riff 3
chorus
end chorus 2
instrumental (no bass)
riff 3B
end
very end
Comments