Saron Gas - Stay And Play Chords & Tabs

 

Stay And Play Chords & Tabs

Saron Gas Chords & Tabs

Version: 2 Type: Tab 0 ratings
1 star 2 stars 3 stars 4 stars 5 stars
comments

Stay And Play Tab

Band:  Saron Gas 
Song:  Stay And Play 
Album: Fragile

Tabbed by: 		Clayton Botha 
Questions/Comments:	cn_botha@freemail.absa.co.za

[ Tab from: http://www.guitartabs.cc/tabs/s/saron_gas/stay_and_play_tab_ver_2.html ]
use a crunch distortion not to much gain
e|--------------------------------------------------------| 
B|--------------------------------------------------------| 
G|---------------------------------------7-7-7-7-7-6-6----| 
D|-----4-5-4-------4-5-4-------4-5-4-x-x-7-7-7-7-7-6-6----| 
A|-----4-5-4-------4-5-4-------4-5-4-x-x-5-5-5-5-5-4-4----| 
E|---0-2-3-2-----0-2-3-2-----0-2-3-2-x-x------------------| 


crank up the gain & add a lot of sharp fuzzy distortion
e|--------------------------------------------------------| 
B|--------------------------------------------------------| 
G|---------------------------------------7-7-7-7-7-6-6----| 
D|-----4-5-4-x-x---4-5-4-x-x---4-5-4-x-x-7-7-7-7-7-6-6----| 
A|-----4-5-4-x-x---4-5-4-x-x---4-5-4-x-x-5-5-5-5-5-4-4----| 
E|---0-2-3-2-x-x-0-2-3-2-x-x-0-2-3-2-x-x------------------| 
Comments