Saron Gas - Fine Again Chords & Tabs

 

Fine Again Chords & Tabs

Saron Gas Chords & Tabs

Version: 2 Type: Tab 0 ratings
1 star 2 stars 3 stars 4 stars 5 stars
comments

Fine Again Tab

Hi there.I saw that the song wasn't on here, so i decided to put it on.
Hope you like it!!!

Here's the intro:

E-------------------------------]
B-------------------------------]
G-------------------------------]
D----6--/---9--\---4--\---2-----]
A---6-6-/--9-9-\--4-4-\--2-2----]
E--4----/-7----\-2----\-0-------]
[ Tab from: http://www.guitartabs.cc/tabs/s/saron_gas/fine_again_tab_ver_2.html ]
Veses goes as follow: ( Just normal stroking)


E---4--7--2--0------------------]
B---4--7--2--0------------------]
G---4--7--2--0------------------]
D---6--9--4--2------------------]
A---6--9--4--2------------------]
E---4--7--2--0------------------]

And that is it! If you have any problems, 
e-mail me at Stoned2often@yahoo.com

see ya!
Gian visser
Comments