Saron Gas - Beer Chords & Tabs

 

Beer Chords & Tabs

Saron Gas Chords & Tabs

Version: 2 Type: Tab 0 ratings
1 star 2 stars 3 stars 4 stars 5 stars
comments

Beer Tab

Song: 	Beer 
Artist: Saron Gas 
Album: 	Fragile 

Tabbed By: 		Clayton Botha 
Questions/Comments:	cn_botha@freemail.absa.co.za


The Tuning Is Drop - D 

Intro/Verse

"I Wish You Were A Beer..."
e[--------------------||----------------------------------] 
B[--------------------||----------------------------------] 
G[--------------------||----------------------------------] 
D[-----4-------4------||----------------------------------] 
A[---4---4---4---4----||----------------------------------] 
D[-4-------4----------||-4---4-4-5-2-2-4---4-4-4-5-2-2-x--] 


Break (Other Instruments stop, Sharp Fuzzy Distortion high trebble)
[ Tab from: http://www.guitartabs.cc/tabs/s/saron_gas/beer_tab_ver_2.html ]
e[----------------------------------] 
B[----------------------------------] 
G[----------------------------------] 
D[-6-/-11-11------------------------] 
A[-4-/-9--9-------------------------] 
D[----------------------------------] 


Chorus (Heavy Distortion)

e[----------------------------------] 
B[----------------------------------] 
G[----------------------------------] 
D[-4-4-4-4-5-5-5-5-7-7-7-7-9-10-9---] 
A[-4-4-4-4-5-5-5-5-7-7-7-7-9-10-9---] 
D[-4-4-4-4-5-5-5-5-7-7-7-7-9-10-9---] 


Outro/Solo (Palm Mute)

	       Guitar 1			
e[----------------------------------] 
B[----------------------------------] 
G[----------------------------------] 
D[-4-4-4-4-5-5-2-4--x-4--x-x-4------] 
A[-4-4-4-4-5-5-2-4--x-4--x-x-4------] 
D[-4-4-4-4-5-5-2-4--x-4--x-x-4------] 

               Guitar 2
e[----------------||----------------] 
B[----------------||----------------]
G[-6p4p0-x-6p4p0--||--5b~~----------]
D[----------------||----------------]
A[----------------||----------------]
D[----------------||----------------]


p = pull off
b = bend 1/2 a note
Comments