Saron Gas - 69 Tea Chords & Tabs

 

69 Tea Chords & Tabs

Saron Gas Chords & Tabs

Version: 2 Type: Tab 0 ratings
1 star 2 stars 3 stars 4 stars 5 stars
comments

69 Tea Tab

Band:  Saron Gas 
Song:  69 tea 
Album: Fragile

Tabbed by: 		Clayton Botha 
Questions/Comments:	cn_botha@freemail.absa.co.za


 Intro without drums and with no distortion 
e|---------------------------------------------------------| 
B|---------------------------------------------------------| 
G|--------------7---7-7-x-x----------7--7-7h8p7--7-\-------| 
D|---5---5-5-x--7---7-7-x-x-7---7-7--8-----------8-\-------| 
A|---5---5-5-x--5---5-5-x-x-7---7-7--8-----------8-\-------| 
E|---3---3-3-x--------------5---5-5--6-----------6-\-------| 

	* \  slide down from the last note to the 1st note & repeat


After the first chorus the intro gets repeated, distorion is added. 

[ Tab from: http://www.guitartabs.cc/tabs/s/saron_gas/69_tea_tab_ver_2.html ]
e|---------------------------------------------------------| 
B|---------------------------------------------------------| 
G|---9-9-9-------------------------------------------------| 
D|---9-9-9--9---9-9--7---7-7----5-5-(-x3x-)----------------| 
A|---7-7-7--9---9-9--7---7-7----5-5-(-x3x-)----------------| 
E|----------7---7-7--5---5-5----3-3-(-x3x-)----------------| 
The 333 piece is muted and played twice. 



This piece is played near the end, just listen to the song. 
e|---------------------------------------------------------| 
B|---------------------------------------------------------| 
G|---5-5-5------------4-4-4--------------------------------| 
D|---5-5-5---6-6-6----4-4-4--2-2-2-------------------------| 
A|---3-3-3---6-6-6----2-2-2--2-2-2-------------------------| 
E|-----------4-4-4-----------1-1-1-------------------------| 

Support SA music at www.friedjam.com 
		    www.powerzone.co.za

	 /---\      /-----\
        | |=\ \    / /===\ \
        | | | |   | |     ==
	 \ \      | |
      
Comments