Sarcophagus - Sarcophagus Theme Chords & Tabs

 

Sarcophagus Theme Chords & Tabs

Sarcophagus Chords & Tabs

Version: 1 Type: Tab 0 ratings
1 star 2 stars 3 stars 4 stars 5 stars
comments

Sarcophagus Theme Tab

this song is a deadly song.............it is a rock (hard).......

1---------------------------------
2---------------------------------
3---------------------------------
4-----9-------9-------9-------9---
5---9---9---9---9---9---9---9---9-
6--7------7-------7-------7-------

after the 2nd time the rythm plays....
1------9-------9---
2----9---9---9---9-
3--7-------7-------
4------------------
5------------------
6------------------   the rythm continues to play this twice..

then bass plays

1------------10-------------10--
2---9-9--12--------9-9--12------
3-------------------------------
4-------------------------------
5-------------------------------
6-------------------------------

1----------------------
2----------------------
3----------------------
4--7--7---8----7--7---8   
5--7--7---8----7--7---8   
6--5--5---6----5--5---6   play this twice
[ Tab from: http://www.guitartabs.cc/tabs/s/sarcophagus/sarcophagus_theme_tab.html ]
.....................verse
1------------------------
2------------------------
3------------------------
4--7--7--7--7--5--5--5--5
5--7--7--7--7--5--5--5--5
6--5--5--5--5--3--3--3--3     play this four times

chorus
1----------------------------
2----------------------------
3----------------------------
4--7--7----7-7---5--5----5-5-
5--7--7----7-7---5--5----5-5-
6--5--5----5-5---3--3----3-3-

--play .....verse

then lead
1--------5-8-5---8-8-5--5-5----5------9-8-8---5^-5^------------8^-8^--9-9-8-9-8-8^-8-9-8^-
2---5--8---------------------8----8-9---------------8h9--8h9------------------------------
3-----------------------------------------------------------------------------------------
4-----------------------------------------------------------------------------------------
5-----------------------------------------------------------------------------------------
6-----------------------------------------------------------------------------------------

--play verse 
--play intro (twice)
Comments