Sarah Slean - Wake Up Chords & Tabs

 

Wake Up Chords & Tabs

Sarah Slean Chords & Tabs

Version: 1 Type: Tab 0 ratings
1 star 2 stars 3 stars 4 stars 5 stars
comments

Wake Up Tab

Sarah Slean - Wake Up
from Day One (2004)

Tabbed by rob chung
drama_rob@hotmail.com

Intro

----------------------------------------|
----------------------------------------|
----------------------------------------|
------------------2---------------------|
---11----11---4--------6----6-6---6--11-|
-0----0---------0---0-----0-----0-------|

---------------------------------------|
---------------------------------------|
---------------------------------------|
------------2--------------------------|
---11---4---------6----6-6---6---------|
-0--------0---0------0-----0-----------|


(Verse 1) Wake up...

--------------------------------------|
--------------------------------------|
--------------------------------------|
-----------------2--------------------|
-11----11---4--------6----6---6-6---6-|
-0---0----0----0-----0--0---0-----0---|


Don't Want to...

--------------------------------------|
--------------------------------------|
--------------------------------------|
-----------------2--------------------|
-11----11---4--------6----6---6-6---6-|
-0---0----0----0-----0--0---0-----0---|


Night has fallen...the stars coming out
[ Tab from: http://www.guitartabs.cc/tabs/s/sarah_slean/wake_up_tab.html ]
---------------------------------------|
---------------------------------------|
---------------------------------------|
-----------------2---------------------|
-11----11---4--------6----6---6--4-----|
-0---0----0----0-----0--0---0------7---|


---------------------------------------|
---------------------------------------|
---------------------------------------|
---------------------------------------|
-4----4--4-----4--4-----6--6------6--6-|
-5--5--5--5--5--5---7--7--7---7--7--7--|

---------------------------------------|
---------------------------------------|
---------------------------------------|
---------------------------------------|
-----4--4---------------7----------7---|
-5--5--5--5--5--7--9--9----9--8--8---8-|

........the sweet little light...

---------------------------------------|
---------------------------------------|
---------------------------------------|
-----------6---6-----7----7---7--------|
------7----7---7-----6----6---6--------|
-7--7--7---7-----7---7--7---7----------|


of mine...

--------------------------------------|
--------------------------------------|
--------------------------------------|
-----------------2--------------------|
-11----11---4--------6----6---6-6---6-|
-0---0----0----0-----0--0---0-----0---|


Repeat from verse 1...

Thats pretty much it. I'm not entirely sure
of the chorus part, but what I tabbed is
pretty close. Email me with comments and
corrections please.
Comments