Sarah Mclachlan - World On Fire Chords & Tabs

 

World On Fire Chords & Tabs

Sarah Mclachlan Chords & Tabs

Version: 2 Type: Chords 0 ratings
1 star 2 stars 3 stars 4 stars 5 stars
comments

World On Fire Chords

   
chords:

e|--0--|--3--|--1--|--0--|--1--|--1----|--3-------|
b|--1--|--3--|--1--|--1--|--3--|--1----|--1-------|
g|--2--|--0--|--2--|--0--|--2--|--3----|--0-------|
D|--2--|--0--|--3--|--2--|--0--|--3----|--2-------|
A|--0--|--2--|--3--|--3--|-----|--1----|--3-------|
E|-----|--3--|--1--|-----|-----|-------|----------|
    Am    G     F     C     Dm   Bbsus2  C (ver.2)




World on Fire:

e|--------|
b|---1-3--|
g|-0------|
D|--------|
A|--------|
E|--------|


Am  G  F  C (x4)

  F                  G         C
Hearts are worn in these dark ages
  Dm         Am      F
You're not alone in this story's pages
     Am         G                  F             C
The light has fallen amongst the living and the dying
         Dm
And I'll try to hold it in
           F
Yeah I'll try to hold it in


     Am         G          F               C
The world's on fire, it's more than I can handle
      G            Am        F
I'll tap into the water and try to bring my share
     Am            G     F               C
I'll try to bring more, more than I can handle
      G              Am
I'll bring it to the table
      F
I'll bring what i am able


   F                       G       C
I watch the heavens but I find no calling
  Dm            Am     F
Something I can do to change what's coming
 Am           G             F      G
Stay close to me while the sky is falling
         Bbsus2
I don't wanna be left alone
       Bbsus2
Don't wanna be alone


     Am         G          F               C
The world's on fire, it's more than I can handle
      G            Am        F
I'll tap into the water and try to bring my share
     Am            G     F               C
I'll try to bring more, more than I can handle
      G              Am
I'll bring it to the table
      F
I'll bring what i am able

[ Tab from: http://www.guitartabs.cc/tabs/s/sarah_mclachlan/world_on_fire_crd_ver_2.html ]
 Dm                  C (ver.2)
Hearts break, hearts mend, love still hurts
 F                     G
Visions clash, planes crash, still there's talk of
 Dm                     C (ver.2)           Bbsus2 
Saving souls, still the cold's closing in on us


Am  G  F  C (x4)

solo:
                                         *
e|-13-12-|-12/15-(15)----|-(15)--------|-15-15-15-15-15--13-12-13-|
b|-------|---------------|-------------|--------------------------|
g|-------|---------------|-------------|--------------------------|
D|-------|---------------|-------------|--------------------------|
A|-------|---------------|-------------|--------------------------|
E|-------|---------------|-------------|--------------------------|


e|-12-----------------|
b|------15-13-(13)----|
g|--------------------|
D|--------------------|
A|--------------------|
E|--------------------|

*the guitar kind of fades out then comes back in so i'm not really sure how many times
the G on the 15th fret is picked but if you play along to it you'll get it


 Am          G       F          C
We part the veil on our killer sun
 Am             G                F          C
Stray from the straight line on this short run
 Am          G        F         C
The more we take the less we become
 Am             G       F              C
The fortune of one man means less for some


Am  G  F  C  G  Am  F (x2)


     Am         G          F               C
The world's on fire, it's more than I can handle
      G            Am        F
I'll tap into the water and try to bring my share
     Am            G     F               C
I'll try to bring more, more than I can handle
      G              Am
I'll bring it to the table
      F
I'll bring what i am able


     Am         G          F               C
The world's on fire, it's more than I can handle
      G            Am        F
I'll tap into the water and try to bring my share
     Am            G     F               C
I'll try to bring more, more than I can handle
      G              Am
I'll bring it to the table
      F
I'll bring what i am able




Comments