Saosin - Third Measurement In C Acoustic Chords & Tabs

 

Third Measurement In C Acoustic Chords & Tabs

Saosin Chords & Tabs

Version: 1 Type: Tab 0 ratings
1 star 2 stars 3 stars 4 stars 5 stars
comments

Third Measurement In C Acoustic Tab

   
Transcribed by: Jamie Williams (lpweb@shaw.ca)
Tuning: Drop D, Down 1 Step (C,G,C,F,A,D)

Guitar 1 (Right Speaker)
------------------------
 C5  D5  E5  G5  G5sus 
|---|---|---|---|-----|
|---|---|---|---|-----|
|---|---|---|---|-----|
|-0-|-2-|-4-|-7-|--9--|
|-0-|-2-|-4-|-7-|--7--|
|-0-|-2-|-4-|-7-|--7--|

[Verse]
-------
E5    D5       C5    D5
Taken back overdone, free and safely
E5    D5      C5        D5
Souvenirs out of style
E5    G5         C5             D5
Do it so I'll be mad, you'll be gone


[Chorus]
--------
E5     C5             D5
Enough said about you been golden 
C5    D5
On my bed
E5                C5
Tango with daddy, seperate only
D5            C5        D5
Smile my only rights of passage


[Verse]
-------
E5   D5       C5         D5
Only you mark my words
E5     G5             C5          D5
To get engaged in california 


[Chorus]
--------
E5     C5             D5
Enough said about you been golden 
C5    D5
On my bed
E5                C5
Tango with daddy, seperate only
D5            C5        D5
Smile my only rights of passage
[ Tab from: http://www.guitartabs.cc/tabs/s/saosin/third_measurement_in_c_acoustic_tab.html ]
[Bridge]
--------
C5    D5  E5                   G5sus
Don’t say that I’m the one you want to lose


Guitar 2 (Left Speaker)
-----------------------
Intro/Chorus
|---------------------------------------------------------------------------------|
|---------------------------------------------------------------------------------|
|---------------------------------------------------------------------------------|
|-4--4--6--6--6--7--7--7--6--6--6--4--4--6--6--6--9--9--9--7--7--7--2--2--4--4--6-|
|-4--4--4--4--4--4--4--4--4--4--4--0--0--0--0--0--0--0--0--0--0--0--2--2--2--2--2-|
|-4--4--4--4--4--4--4--4--4--4--4--0--0--0--0--0--0--0--0--0--0--0--2--2--2--2--2-|

|---------------|
|---------------|
|---------------|
|-6-6-6-6/7-7-7-|
|---------------|
|---------------|

|-------------------------|
|-------------------------|
|-------------------------|
|-----5*-----------2------|
|---0----0--0----2---2--2-|
|-0------------2----------|

Verse
|-----------------------------------------------------------------------------|
|-----------------------------------------------------------------------------|
|---------9---------9-------9---------9---------9-------9---------9---------9-|
|-------7---------7------7----------7---------7------7----------7---------7---|
|-9-9-9-----9-9-9-----9-------7-7-7-----7-7-7-----7-------5-5-5-----5-5-5-----|
|-----------------------------------------------------------------------------|

|-----------------------------------|
|------------------------------10/9-|
|-------9---------9---------9-------|
|----7----------7---------7---------|
|-5-------7-7-7-----7-7-7-----------|
|-----------------------------------|
Comments