Saosin - They Perch On Their Stilts And Dare Me To Break Custom Chords & Tabs

 

They Perch On Their Stilts And Dare Me To Break Custom Chords & Tabs

Saosin Chords & Tabs

Version: 1 Type: Tab 0 ratings
1 star 2 stars 3 stars 4 stars 5 stars
comments

They Perch On Their Stilts And Dare Me To Break Custom Tab

Saosin-They Perch On Their Stilts and Dare me to Break Custom
Tabbed by Matt and Mike
D Tuning (DGCFAD)
Figure out the rhythm for the intro chords.

Intro
|---------------------||-----------------------|
|---------------------||-----------------------|
|---------------------||---4-2-4-----4-----4-5-|
|-5--5-4-h5-2-4-2-4-5-||-5--------5-----5------|
|-3-------------------||-3---------------------|
|---------------------||-----------------------|

|---------------------||-----------------------|
|---------------------||-----------------------|
|---------------------||---4-2-4-----4-----4-5-|
|-7--5-4-h5-2-4-2-4-5-||-7--------5-----5------|
|-5-------------------||-5---------------------|
|---------------------||-----------------------|

|---------------------||--------------------------|
|---------------------||--------------------------|
|---------------------||---4-2-4-----4-----4-5----|
|----5-4-h5-2-4-2-4-5-||----------5-----5---------|
|-2-------------------||------------------------2-|
|-0-------------------||------------------------0-|


Verse (Distortion)
|-0-00-0-0--|
|-7-77-8-5--|
|-----------|
|-----------|
|-----------|
|-----------|

Chorus
|---------------------||-----------------------|
|---------------------||-----------------------|
|---------------------||---4-2-4-----4-----4-5-|
|-5--5-4-h5-2-4-2-4-5-||-5--------5-----5------|
|-3-------------------||-3---------------------|
|---------------------||-----------------------|
[ Tab from: http://www.guitartabs.cc/tabs/s/saosin/they_perch_on_their_stilts_and_dare_me_to_break_custom_tab.html ]
|---------------------||-----------------------|
|---------------------||-----------------------|
|---------------------||---4-2-4-----4-----4-5-|
|-7--5-4-h5-2-4-2-4-5-||-7--------5-----5------|
|-5-------------------||-5---------------------|
|---------------------||-----------------------|

|---------------------||-----------------------|
|---------------------||-----------------------|
|---------------------||---4-2-4-----4-----4-5-|
|----5-4-h5-2-4-2-4-5-||----------5-----5------|
|-2-------------------||-----------------------|
|-0-------------------||-----------------------|

Break thing
|-----------------|
|-----------------|
|-----------------|
|-5-4-h5p-2-4-5-2-|
|-----------------|
|-----------------|

|----------------|
|----------------|
|----------------|
|-5-4-h5p-2-4-5--|
|--------------5-|
|----------------|

|-----------------------------------------|
|-----------------------------------------|
|-----------------------------------------|
|-5-4-h5p----4-5-------5-4-h5p----4-5-----|
|---------5--------5-----------5--------2-|
|-----------------------------------------|

|-------------------------------------------|
|-------------------------------------------|
|-------------------------------------------|
|-5-4-h5p----4-5-------5-4-h5p----4-5-------|
|----------2--------2-----------2---------3-|
|-------------------------------------------|

|---------------------------------------|
|---------------------------------------|
|---------------------------------------|
|-5-4-h5p----4-5-------5-4-h5p----4-5-4-|
|----------3-------3------------3-------|       
|---------------------------------------|
Comments