Saosin - Seven Years Chords & Tabs

 

Seven Years Chords & Tabs

Saosin Chords & Tabs

Version: 2 Type: Tab

Seven Years Tab

Rodrigo villanueva
Lima Peru
yoyo_v89
rate pleaseee!

Intro (00:01) (x4)

e/------------------------------------------------------------|
b/------------------------------------------------------------|
g/------5------------5-------------5------------5-----5-------|
D/----3---3---3----3---3---3-----3---3---3----3---3-----3-----|
A/--5-------5----5-------5-----1-------1----1-------1---------|
D/------------------------------------------------------------|


Pre Chorus (00:32) (x2)

e/--------------------------------------------------|
b/--------------------------------------------------|
g/--7x-77-9x-9999---7777----------------------------|
D/--xx-xx-xx-xxxx---xxxx-77777h5--8888888888888888--|
A/--5x-55-7x-7777---5555-88888h7--8888888888888888--|
D/--------------------------------8888888888888888--|

e/------------------------------------------------------------------------|
b/-------------------------------------------------10-11-13-11-10---------|
g/--7x-77-9x-9999---7777------------7-9-10-9-10-12----------------12-10---|
D/--xx-xx-xx-xxxx---xxxx-77777h5------------------------------------------|
A/--5x-55-7x-7777---5555-88888h7------------------------------------------|
D/------------------------------------------------------------------------|


Chorus (00:48) 

e/-----------------------------------|
b/-----------------------------------|
g/-----------------------------------|
D/--0-------10-------7-------8-------|
A/--5(x18)--10(x16)--7(x13)--8(x13)--|
D/--0-------10-------7-------8-------|

e/---------------------------------------------------------------|
b/---------------------------------------------------------------|
g/-----------------------5---------5-----------5----------5------|
D/--0-------10-------------333-------333---------333--------333--|
A/--5(x18)--10(x16)--000-------00----------111--------11---------|
D/--0-------10---------------------------------------------------|

Chorus Gtr 2

e/------5---------5---------|
b/--6-----6-5-6-----6-5-6---|
g/----5---------5-----------|
D/--------------------------|
A/--------------------------|
D/--------------------------|

Verse (01:12)
[ Tab from: http://www.guitartabs.cc/tabs/s/saosin/seven_years_tab_ver_2.html ]
e/------------------------------------------------------------|
b/------------------------------------------------------------|
g/------5------------5-------------5------------5-----5-------|
D/----3---3---3----3---3---3-----3---3---3----3---3-----3-----|
A/--5-------5----5-------5-----1-------1----1-------1---------|
D/------------------------------------------------------------|

Pre Chorus (01:37)

e/--------------------------------------------------|
b/--------------------------------------------------|
g/--7x-77-9x-9999---7777----------------------------|
D/--xx-xx-xx-xxxx---xxxx-77777h5--8888888888888888--|
A/--5x-55-7x-7777---5555-88888h7--8888888888888888--|
D/--------------------------------8888888888888888--|

e/------------------------------------------------------------------------|
b/-------------------------------------------------10-11-13-11-10---------|
g/--7x-77-9x-9999---7777------------7-9-10-9-10-12----------------12-10---|
D/--xx-xx-xx-xxxx---xxxx-77777h5------------------------------------------|
A/--5x-55-7x-7777---5555-88888h7------------------------------------------|
D/------------------------------------------------------------------------|

Chorus (01:52)

e/-----------------------------------|
b/-----------------------------------|
g/-----------------------------------|
D/--0-------10-------7-------8-------|
A/--5(x18)--10(x16)--7(x13)--8(x13)--|
D/--0-------10-------7-------8-------|

e/---------------------------------------------------------------|
b/---------------------------------------------------------------|
g/-----------------------5---------5-----------5----------5------|
D/--0-------10-------------333-------333---------333--------333--|
A/--5(x18)--10(x16)--000-------00----------111--------11---------|
D/--0-------10---------------------------------------------------|

Outro (02:16)

e/-------------------------------|
b/-------------------------------|
g/-------------------------------|
D/--7------7------7------7-------|
A/--5(x6)--5(x6)--5(x6)--5(x6)---|
E/--0------0------0------0-------|

e/-------------------------------|
b/-------------------------------|
g/-------------------------------|
D/--7------7------8------10------|
A/--5(x6)--5(x6)--8(x6)--10(x6)--|
E/--0------0------8------10------|

Gtr 2 (lot of times)

e/------5---------5---------|
b/--6-----6-5-6-----6-5-6---|
g/----5---------5-----------|
D/--------------------------|
A/--------------------------|
D/--------------------------|

End with
 
e/-----|
b/-----|
g/-----|
D/--0--|
A/--5--|
D/--0--|