Saosin - Seven Years Chords & Tabs

 

Seven Years Chords & Tabs

Saosin Chords & Tabs

Version: 1 Type: Tab 0 ratings
1 star 2 stars 3 stars 4 stars 5 stars
comments

Seven Years Tab

   
Band: Saosin
Title: Seven years
tabbed by: Pedro Ayala from Guayaquil, Ecuador
e-mail: ped_ro@hotmail.com

... - Palm Mute 
h - Hammer On 
p - Pull Off 
* - Harmonics 

C Tuned

 Intro  
D|-----------------------------------------------------------------|                
A|-----3-----------3-----------3-----------3-----------------------|
F|---0---0---0---0---0---0---0---0---0---0---0---0-----------------| X3
C|-2-------2---2-------2-------------------------------------------|
G|-------------------------3-------3---3-------3-------------------|
C|-----------------------------------------------------------------|

D|---------------------------------------------------------------------|
A|-----3-----------3-----------3------------3--------------------------|
F|---0---0---0---0---0---0---0---0---0----0---0---0--------------------|
C|-2-------2---2-------2----------------0-------0----------------------|
G|-------------------------3-------3-----------------------------------|
C|---------------------------------------------------------------------|
 Guitar 1
D|---------------------------------------------------------------------|
A|---------------------------------------------------------------------|
F|-------------------------2h4-4-4-4p2----555555555555555555555555-----|
C|-2---4h5-5-5-5p4-----2---------------5--555555555555555555555555-----|
G|-2---------------7---2------------------333333333333333333333333-----|
C|-2-------------------2-----------------------------------------------|

D|---------------------------------------------------------------------|
A|---------------------------------------------------------------------|
F|-----------7--------------7--------------------7-5-4-----------------|
C|-2-4-4h5-4---5--2-4-4h5-4---5--2-4-5-4-5-7-5-7-------5---------------|
G|---------------------------------------------------------------------|
C|---------------------------------------------------------------------|

D|---------------------------------------------------------------------|
A|---------------------------------------------------------------------|
D|-----------------7777777777777777-44444444-55555555------------------|
C|-222222222222222-7777777777777777-44444444-55555555------------------|
G|-222222222222222-5555555555555555-22222222-33333333------------------|
C|-222222222222222-----------------------------------------------------|
[ Tab from: http://www.guitartabs.cc/tabs/s/saosin/seven_years_tab.html ]
D|---------------------------------------------------------------------|
A|-------------------------------------------7---------------7---------|
D|-----------------7777777777777777------5-----5---5-----5-----5---5---|
C|-222222222222222-7777777777777777--3-3---3-----3---3-3---3-----3-----|
G|-222222222222222-5555555555555555------------------------------------|
C|-222222222222222-----------------------------------------------------|
                                     . .   .     .   . .   .     .
D|---------------------------------------------------------------------|
A|---------7--------------7--------------------------------------------|
F|-----5-----5---5----5-----5----5-------------------------------------|
C|-5-5---5-----5---5-5---5-----5---------------------------------------|
G|---------------------------------------------------------------------|
C|---------------------------------------------------------------------|
   . .   .     .   . .   .     .

Repeat The Whole Thing Again




D|---------------------------------------------------------------------|
A|---------------------------------------------------------------------|
F|---------------------------------------------------------------------|
C|-222222222--222222222--222222222--222222222--------------------------|
G|-222222222--222222222--222222222--222222222--------------------------|
C|-222222222--222222222--222222222--222222222--------------------------|

D|------------------------------------------------------------------|
A|------------------------------------------------------------------|
F|-----------------------555555555--777777777-----------------------| X5
C|-222222222--222222222--555555555--777777777-----------------------|
G|-222222222--222222222--333333333--555555555-----------------------|
C|-222222222--222222222---------------------------------------------|

  Guitar 2
D|---------------------------------------------------------------------|
A|----5*-----------------------5*--------------------------------------|
F|-------5*-----------------------5*----------------555555555555555555-|
C|-2--------4h5-5-5-5p4-----2--------4h5-5-5-5p4----555555555555555555-|
G|-2--------------------7---2--------------------7--333333333333333333-|
C|-2------------------------2------------------------------------------|

D|---------------------------------------------------------------------|
A|----5*-----------------------5*--------------------------------------|
F|-------5*-----------------------5*-----------------------------------|
C|-2--------4h5-5-5-5p4-----2--------4h5-5-5-5p4-----------------------|
G|-2--------------------7---2--------------------7---------------------|
C|-2------------------------2------------------------------------------|
                                       "Repeat Harmonics"
D|---------------------------------------------------------------------|
A|-------------------------------------5*----------------5*------------|
F|-----------------7-5-4------5*----------5*----5*----------5*---------|
C|-2-4-5-4-5-7-5-7-------5-------5*----------5*----5*----------5*------|
G|----------------------------------5*----------------5*---------------|
C|---------------------------------------------------------------------|

its almost 100% exelent
Comments