Saosin - Seven Years Acoustic Chords & Tabs

 

Seven Years Acoustic Chords & Tabs

Saosin Chords & Tabs

Version: 4 Type: Tab

Seven Years Acoustic Tab

Saosin - Seven Years (acoustic)

Tuning: standard
(capo 1st fret)

VERSE

e|---------------------------------------------------------------------|
B|---------------------------------------------------------------------|
G|----4-----------4-----------4------------4---------------------------|
D|--2---2---2---2---2---2---2---2---2----2---2---2---------------------|
A|------------------------0-------0---0--------0-----------------------|
E|0-------0---0-------0------------------------------------------------|
  Taking on   seven years the holy ghost had left alone

e|---------------------------------------------------------------------|
B|---------------------------------------------------------------------|
G|----4-----------4-----------4------------4---------------------------|
D|--2---2---2---2---2---2---2---2---2----2---2---2---------------------|
A|------------------------0-------0---0--------0-----------------------|
E|0-------0---0-------0------------------------------------------------|
  Test my arms, kick like crazy--I've been trying way too long

e|---------------------------------------------------------------------|
B|---------------------------------------------------------------------|
G|----4-----------4-----------4------------4---------------------------|
D|--2---2---2---2---2---2---2---2---2----2---2---2---------------------|
A|------------------------0-------0---0--------0-----------------------|
E|0-------0---0-------0------------------------------------------------|
Only push the way off to fight you, and I'm sorry, I'm sorry, I'm not sure

e|---------------------------------------------------------------------|
B|---------------------------------------------------------------------|
G|----4-----------4-----------4------------4---------------------------|
D|--2---2---2---2---2---2---2---2---2----2---2---2---------------------|
A|------------------------0-------0---2--------0-----------------------|
E|0-------0---0-------0------------------------------------------------|
  Getting off my chest,   the story ends

e|---------------------------------------------------------------------|
B|---------------------------------------------------------------------|
G|----4-----------4-----------4------------4---------------------------|
D|--2---2---2---2---2---2---2---2---2----2---2---2---------------------|
A|------------------------0-------0---0--------0-----------------------|
E|0-------0---0-------0------------------------------------------------|
I would find a way without you

e|---------------------------------------------------------------------|
B|---------------------------------------------------------------------|
G|----4-----------4---------4---4---4---4---4--------------------------|
D|--2---2---2---2---2------2---2---2---2---2-2-------------------------|
A|------------------------0---0---0---0---0----------------------------|
E|0-------0---0-------0-4----------------------------------------------|
I would find a way without you

CHORUS

e|--------------------------------------------------------------------------|
B|--------------------------------------------------------------------------|
G|----4-----------4------------4-----------4------------4-----------4-------|
D|--2---2---2---2---2---2----2---2---2---2---2---2----2---2---2---2---2---2-|
A|-------------------------2-------2---2-------2----------------0-------0---|
E|0-------0---0-------0-----------------------------4-------4---------------|
  That mistake was gold   I know that without you   It's something that I could never do

e|--------------------------------------------------------------------------|
B|--------------------------------------------------------------------------|
G|----4-----------4------------4-----------4------------4-----------4-------|
D|--2---2---2---2---2---2----2---2---2---2---2---2----2---2---2---2---2---2-|
A|-------------------------2-------2---2-------2----------------0-------0---|
E|0-------0---0-------0-----------------------------4-------4---------------|
  That was right, staple the eyes and seven dates for me to sell machines and tear on

VERSE

e|---------------------------------------------------------------------|
B|---------------------------------------------------------------------|
G|----4-----------4-----------4------------4---------------------------|
D|--2---2---2---2---2---2---2---2---2----2---2---2---------------------|
A|------------------------0-------0---0--------0-----------------------|
E|0-------0---0-------0------------------------------------------------|
  Seven years you assured me, I'd be fine if I complied

e|---------------------------------------------------------------------|
B|---------------------------------------------------------------------|
G|----4-----------4-----------4------------4---------------------------|
D|--2---2---2---2---2---2---2---2---2----2---2---2---------------------|
A|------------------------0-------0---0--------0-----------------------|
E|0-------0---0-------0------------------------------------------------|
  Only push the way off to fight you, and I'm sorry, I'm sorry, I'm not sure
[ Tab from: http://www.guitartabs.cc/tabs/s/saosin/seven_years_acoustic_tab_ver_4.html ]
e|---------------------------------------------------------------------|
B|---------------------------------------------------------------------|
G|----4-----------4-----------4------------4---------------------------|
D|--2---2---2---2---2---2---2---2---2----2---2---2---------------------|
A|------------------------0-------0---0--------0-----------------------|
E|0-------0---0-------0------------------------------------------------|
  Getting off my chest,   the story ends

e|---------------------------------------------------------------------|
B|---------------------------------------------------------------------|
G|----4-----------4-----------4------------4---------------------------|
D|--2---2---2---2---2---2---2---2---2----2---2---2---------------------|
A|------------------------0-------0---0--------0-----------------------|
E|0-------0---0-------0------------------------------------------------|
  . . .                   Without you

e|---------------------------------------------------------------------|
B|---------------------------------------------------------------------|
G|----4-----------4-----------4------------4---------------------------|
D|--2---2---2---2---2-------2---2---2----2---2---2---------------------|
A|------------------------0-------0---0--------0-----------------------|
E|0-------0---0-------0-4----------------------------------------------|
  I would find a way without you


e|---------------------------------------------------------------------|
B|---------------------------------------------------------------------|
G|----4-----------4---------4---4---4---4---4--------------------------|
D|--2---2---2---2---2------2---2---2---2---2-2-------------------------|
A|------------------------0---0---0---0---0----------------------------|
E|0-------0---0-------0-4----------------------------------------------|
  I would find a way without you


e|--------------------------------------------------------------------------|
B|--------------------------------------------------------------------------|
G|----4-----------4------------4-----------4------------4-----------4-------|
D|--2---2---2---2---2---2----2---2---2---2---2---2----2---2---2---2---2---2-|
A|-------------------------2-------2---2-------2----------------0-------0---|
E|0-------0---0-------0-----------------------------4-------4---------------|
That mistake was gold      I know that without you  it's something that I could never ever ever ever...

e|----------------------------------------------------------------------|
B|----------------------------------------------------------------------|
G|----4-----------4------------4-----------4------------4-----------4---|
D|--2---2---2---2---2---2----2---2---2---2---2---2----2---2---2---2---2-|
A|-------------------------2-------2---2-------2----------------0-------|
E|0-------0---0-------0-----------------------------4-------4-----------|
That was right, staple the eyes and    seven dates for me to sell machines and tear on

BRIDGE

e|-----------------------------------------------------------------|
B|-----------------------------------------------------------------|
G|--4----------4----------4---------4------------------------------|
D|----2----------2----------2---------2----------------------------|
A|-----------------------------------------------------------------|
E|0-----0---0------0----0-----0---0-----0--------------------------|

e|-----------------------------------------------------------------|
B|-----------------------------------------------------------------|
G|--4----------4----------4---------4------------------------------|
D|----2----------2----------2---------2----------------------------|
A|----------------------0-----0---2-----2--------------------------|
E|0-----0---0------0-----------------------------------------------|
  Don't treat me I'm to blame, don't treat me like I ever accused you

e|-----------------------------------------------------------------|
B|-----------------------------------------------------------------|
G|--4----------4----------4---------4------------------------------|
D|----2----------2----------2---------2----------------------------|
A|----------------------0-----0---2-----2--------------------------|
E|0-----0---0------0-----------------------------------------------|
  Don't treat me I'm to blame, don't treat me like I ever accused you

e|-----------------------------------------------------------------|
B|-----------------------------------------------------------------|
G|--4----------4----------4---------4------------------------------|
D|----2----------2----------2---------2----------------------------|
A|----------------------0-----0---2-----2--------------------------|
E|0-----0---0------0-----------------------------------------------|
  Don't treat me I'm to blame, don't treat me like I ever accused you

e|-----------------------------------------------------------------|
B|-----------------------------------------------------------------|
G|--4----------4----------4---------4-----4--4---------------------|
D|----2----------2----------2---------2--2-2-2---------------------|
A|----------------------0-----0---2-----2----0---------------------|
E|0-----0---0------0-----------------------------------------------|
  Don't treat me I'm to blame, don't treat me like I ever accused you