Saosin - Seven Years Acoustic Chords & Tabs

 

Seven Years Acoustic Chords & Tabs

Saosin Chords & Tabs

Version: 2 Type: Tab 0 ratings
1 star 2 stars 3 stars 4 stars 5 stars
comments

Seven Years Acoustic Tab

your gonna hav to do a drop D for this thang....also...i dont know da words...but heres
wat i hav so far

verse: x3
e|-----------------------------------------------|
B|----1-----------1------------1----------1------|
G|-----------------------------------------------|
D|2-3---3-2-3-2-3---3-2-3-----3--3-3----3---3-3--|
A|--------------------------1-----1---1------1---|
D|0-------0---0-------0--------------------------|
[ Tab from: http://www.guitartabs.cc/tabs/s/saosin/seven_years_acoustic_tab_ver_2.html ]
4th time
e|-----------------------------------------------|
B|----1-----------1------------1---------1-------|
G|--------------------------------------0--0-0---|
D|2-3---3-2-3-2-3---3-2-3-----3--3-3-------------|
A|--------------------------1-----1---3-----3----|
D|0-----------0----------------------------------|

verse one more time then som plukin...try plukin quickly using the verse tab

chorus
e|-----------------------------------------|
B|----1--------1---------1---------1-------|
G|---0---0-0--0---0-0----------------------|
D|----------------------3---3-3---3--3-3---|
A|--3-----3--3-----3---0-----0---1----1----|
D|-----------------------------------------|

play verse agen but pause every every so and den...jus listen to da song
im sure this is correct, ne more suggestion or wat not, go ahead and email me, at
aznrj69@yahoo.com ...oh yeah dis my first one so lol
Comments