Saosin - Seven Years Acoustic Chords & Tabs

 

Seven Years Acoustic Chords & Tabs

Saosin Chords & Tabs

Version: 1 Type: Tab 0 ratings
1 star 2 stars 3 stars 4 stars 5 stars
comments

Seven Years Acoustic Tab

Tabbed by: punk rock!22
Email: cracks_kill22@hotmail.com

Tuning: standard
(capo 1st fret)
VERSE
e|---------------------------------------------------------------------|
B|---------------------------------------------------------------------|
G|----4-----------4-----------4------------4---------------------------|
D|--2---2---2---2---2---2---2---2---2----2---2---2---------------------|
A|------------------------0-------0---0--------0-----------------------|
E|0-------0---0-------0------------------------------------------------|
(Seven years...)
[ Tab from: http://www.guitartabs.cc/tabs/s/saosin/seven_years_acoustic_tab.html ]
CHORUS
e|----------------------------------------------------------------------|
B|----------------------------------------------------------------------|
G|----4-----------4------------4-----------4------------4-----------4---|
D|--2---2---2---2---2---2----2---2---2---2---2---2----2---2---2---2---2-|
A|-------------------------2-------2---2-------2----------------0-------|
E|0-------0---0-------0-----------------------------4-------4-----------|
(That mistake was gold...)

BRIDGE
e|---------------------------------------------------------------------|
B|---------------------------------------------------------------------|
G|--4--------4--------4---------4--------------------------------------|
D|----2--------2--------2---------2------------------------------------|
A|------------------0-----0---2-----2----------------------------------|
E|0-----0-0------0-----------------------------------------------------|

Sorry the words arnt there but I have yet to figure them all out so...
I also didn't include the number of times played but you'll have to listen to the song. 
my first tab so take it easy on me, I m pretty sure its all right, sounds perfect to me 
if not then tell me so I can play it right. Have fun!
Comments