Santos Paolo - Overjoyed Chords & Tabs

 

Overjoyed Chords & Tabs

Santos Paolo Chords & Tabs

Version: 1 Type: Tab 0 ratings
1 star 2 stars 3 stars 4 stars 5 stars
comments

Overjoyed Tab

Overjoyed
Paolo Santos

johnsantos_17@yahoo.com

Standard Tuning: (EADGBE)
original tune is one fret higher

Intro:

E---------------------------------
B---------------------------------
G--2---2--2---2--2---2--2---2-----
D--2-2----1-1----0-0----1-1-------
A--3------2------1------2---------
E---------------------------------

E------------------------------
B------------------------------
G--2---2--2---2--2-2-2-2-------
D--2-2----1-1----0-0-0-2-------
A--3------2------1-1-1-0-------
E------------------------------

Verse:
Overtime i've been building my castle of love...

E--2--2--0--0\0-
B--2--3--0--3\2-
G--2--2--0--0\0-
D--0--4--2--2\2-
A-----2--2--0\0-
E--------0------

just for two..

E-2--2----------------------
B-2--3--5-/-7------------------
G-2--2--4-/-6------------------
D-0--4--2-/-4-----------------
A----2---------------------
E-------4-/-6----------------

i've gone much too far...

E---------2-0---0-0------------
B-2---7---3-0---2-0--------------
G-4---6---2-1---2-2-------------
D-4---4---4-2---2-2--------------
A-2-------2-2---0-0-------------
E-----6-----0----------------

Chorus:
And though you don't believe that they do...
[ Tab from: http://www.guitartabs.cc/tabs/s/santos_paolo/overjoyed_tab.html ]
E--0------0-----0------------
B--0--3---0-2---1-0-------------
G--0--2---0-2---0-4-------------
D--0--0---2-2---2-4-------------
A--2--0---2-0---3-2-------------
E--3--2---0------------------

And maybe too if you would believe...

E-------------0\0------------
B-0--5\5---0--3\2-----------------
G-2--4\4---0--0\0----------------
D-2--2\2---2--2\2-----------------
A-0--------2--0\0--------------
E----4\3---0------------------

Ablib: same as intro

Last chorus: play (x24242) before this
And though the odd say improbable...

E-------2-2---0--------------
B-0--5--2-4---3-4---------------
G-2--4--2-2---2-6---------------
D-2--2--2-4---0-6---------------
A-0-----4-2-----4-------------
E----4--2-------------------

And maybe with a chance you would find...

E---------2--2\2--------------
B-0--7\7--2--5\4------------------
G-4--6\6--2--2\2------------------
D-4--4\4--2--4\4------------------
A-2-------4--2\2---------------
E----6\5--2-------------------

Outro:
Over you...     over you....

E--0--1--0-----------2*--------
B--0--1--0------3\2--3*-------
G--1--2--0------0\0--2*-------
D--2--3--0------2\2--0*--------
A--2--3--2------0\0-----------
E--0--1--3-------------------

Comments