Santos E Pecadores - N O Voltarei A Ser Fiel Chords & Tabs

 

N O Voltarei A Ser Fiel Chords & Tabs

Santos E Pecadores Chords & Tabs

Version: 1 Type: Tab 0 ratings
1 star 2 stars 3 stars 4 stars 5 stars
comments

N O Voltarei A Ser Fiel Tab

   
 
Santos & Pecadores - Não Voltarei A Ser Fiel


Intro
   Cadd9               E7
e|----3-------2-3-2--------2-3-2------3/5-3-2-0----|
B|---3-3-3----3-3--3-3---3-3-3--3---3-3/5-3-3-0----|
G|--0---0---0-------0---0--------0-0---------------|
D|---------------------2----------2----------------|
A|-3-------3---------------------------------------|
E|-------------------------------------------------|
   Cadd9               E7
e|----3--3-2---2-3-2-------2-3-2------2-3-2--------|
B|---3-3----3--3-3--3----3-3-3--3---3-3-3--3-------|
G|--0---0----0-------0--0--------0-0--------0------|
D|---------------------2----------2----------------|
A|-3-------3---------------------------------------|
E|-------------------------------------------------|



Verses
   Cadd9                         E7
e|-------3-----3-2-----2-3-2-----------2-3-2-----------3/5-3-2-0---|
B|-----3---3-------3---3-3---3-------3-3-3---3-------3-3/5-3-3-0---|
G|---0-------0-------0---------0---0-----------0---0---------------|
D|-------------------------------2---------------2-----------------|
A|-3-------------3-------------------------------------------------|
E|-----------------------------------------------------------------|
   Fiz-me na noite               actor principal

   Cadd9                         E7
e|-------3-----3-2-----2-3-2-----------2-3-2-----------2-----------|
B|-----3---3-------3---3-3---3-------3-3-3---3-------3-------------|
G|---0-------0-------0---------0---0-----------0---0---------------|
D|-------------------------------2---------------2-----------------|
A|-3-------------3-------------------------------------------------|
E|-----------------------------------------------------------------|
   Entrei numa peça              nem sei bem qual

   Cadd9                         E7
e|-------3-----3-2-----2-3-2-----------2-----2-----2----2----------|
B|-----3---3-------3---3-3---3-------3-----------------------------|
G|---0-------0-------0---------0---0-------0-----0---0-------------|
D|-------------------------------2-------2-----2---2---------------|
A|-3-------------3-------------------------------------------------|
E|-----------------------------------------------------------------|
  Hoje sou o amante              que te vê dançar

   Cadd9                           E7
e|---------3-----3-2-----2-3-2-----------2-3-2-----------2-2-2-----|
B|-------3---3-------3---3-3---3-------3-3-3---3-------3-3-3---3---|
G|-----0-------0-------0---------0---0-----------0---0-----------0-|
D|---------------------------------2---------------2---------------|
A|-0-3-------------3-----------------------------------------------|
E|-----------------------------------------------------------------|
  Amanhã o errante               que te vai deixar

[ Tab from: http://www.guitartabs.cc/tabs/s/santos_e_pecadores/n_o_voltarei_a_ser_fiel_tab.html ]
Chorus
   D                               Cadd9
e|-------2-3-2-----------2-3-3/5-3-------2-3-2------------2-3-2------------|
B|-----3-3-3---3-------3-3-3-3/5-3-----3-3-3---3--------3-3-3---3----------|
G|---2-----------2---2---------------0-----------0----0-----------0--------|
D|-0---------------0-------------------------------------------------------|
A|---------------------------------3----------------3----------------------|
E|-------------------------------------------------------------------------|
  Não                              não voltarei       a ser 

  E7
e|-------2-3-2-----------2-3-2-----------2-3-2-----------2-3-2-----------3-|
B|-----3-3-3---3-------3-3-3---3-------3-3-3---3-------3-3-3---3-------3---|
G|---0-----------0---0-----------0---0-----------0---0-----------0---0-----|
D|-2---------------2---------------2---------------2---------------2-------|
A|-------------------------------------------------------------------------|
E|-------------------------------------------------------------------------|
   fiel                        fiel


solo1
   Cadd9       E7                                 Cadd9
e|-3^5-3-2^3-2-3^5-3--------------------------0-2-3-5-3-2----5-5-----3-3---|
B|-3^5-3-3---3------5-3-3--5^2--0-2--2-3--3-5-------------5------3-3-------|
G|-------------------------------------------------------------------------|
D|-------------------------------------------------------------------------|
A|-------------------------------------------------------------------------|
E|-------------------------------------------------------------------------|
         E7
e|------3/5-3^5-3-----2-3^2--2-3^2--2-3-5-3--------------------------------|
B|-3-3-----------3/5-----------------------3-------------------------------|
G|-------------------------------------------------------------------------|
D|-------------------------------------------------------------------------|
A|-------------------------------------------------------------------------|
E|-------------------------------------------------------------------------|


Procuro a loucura na noite fingida
Nem sequer já me importa o que possas dizer
Represento a verdade que eu bem entender

chorus x2

solo2
   Cadd9                   E7                     Cadd9         E7                                                 
e|-----3-3/5-5-3--2-3----------3-3/5-5/7-7/10-10------------------|
B|-3/5----------------5/3--3/5------------------------------------|
G|----------------------------------------------------------------|    only
D|----------------------------------------------------------------|x2->first 
A|----------------------------------------------------------------|    part
E|----------------------------------------------------------------|
                                              Tu ru ru    ohoh

   Cadd9                E7                     Cadd9            E7  
e|--3-5-3---5-3---5-3---3-5-3---5-3---5-3---5-3-------------------|
B|-------5-3---5-3---5-3-----5-3---5-3---5-3----------------------|
G|----------------------------------------------------------------|
D|----------------------------------------------------------------|
A|----------------------------------------------------------------|
E|----------------------------------------------------------------|
  Tu ru ru        ohoh               Tu ru ru     ohoh          


lyrics:

Fiz-me na noite actor principal
Entrei numa peça nem sei bem qual
Hoje sou o amante que te vê dançar
Amanhã o errante que te vai deixar

Não..não voltarei...a ser fiel... Fiel

Procuro a loucura na noite fingida
Nem sequer já me importa o que possas dizer
Represento a verdade que eu bem entender

Tu ru ru   ohoh



This is a good music, isn't hard...but please don't sing...(lolololololo)



Tabbed by Claudio Quina
questions email-me to claudioquina@hotmail.com
Comments