Santo Johnny - Sleepwalk Chords & Tabs

 

Sleepwalk Chords & Tabs

Santo Johnny Chords & Tabs

Version: 1 Type: Tab 0 ratings
1 star 2 stars 3 stars 4 stars 5 stars
comments

Sleepwalk Tab

   
Santo & Johnny
Sleepwalk

e|------------------|------------------|------------------|------------------|
B|----5--5--5--5--5-|----10-10-10-10-10|----1--1--1--1--1-|-3~~~~----8-10-b16|
G|----5--5--5--5--5-|----9--9--9--9--9-|----1--1--1--1--1-|-4~~~~------------|
D|------------------|------------------|------------------|------------------|
A|------------------|------------------|------------------|------------------|
E|------------------|------------------|------------------|------------------|

e|------------------|------------------|------------------|------------------|
B|12////////|////--------8-|-10-------10-10-10|-10/12-12////-|
G|------------------|------------------|-10-------10-10-10|-10/12-12////-|
D|------------------|------------------|------------------|------------------|
A|------------------|------------------|------------------|------------------|
E|------------------|------------------|------------------|------------------|

e|------------------|------------------|------------------|------------------|
B|b13~~~~~~~~~~~~~~~|-8////////|/-----------6-/8-|b9~~~~r8~~~~6----|
G|------------------|------------------|-------------7-/9-|b10~~~r9~~~~7----|
D|------------------|------------------|------------------|------------------|
A|------------------|------------------|------------------|------------------|
E|------------------|------------------|------------------|------------------|
   
e|------------------|------------------|------------------|------------------|
B|b13~~~~~~~~~~~~~~~|-8////////|/-----------6-/8-|b9~~~~r8~~~~6----|
G|------------------|------------------|-------------7-/9-|b10~~~r9~~~~7----|
D|------------------|------------------|------------------|------------------|
A|------------------|------------------|------------------|------------------|
E|------------------|------------------|------------------|------------------|

e|------------------|------------------|------------------|------------------|
B|-8~~~~~~--5--8-51|-1~~~~~~~---------|----------------1-|-5--5--------5--5-|
G|-9----------------|-2~~~~~~~---------|----------------1-|-5--5--------5--5-|
D|------------------|------------------|------------------|------------------|
A|------------------|------------------|------------------|------------------|
E|------------------|------------------|------------------|------------------|
  
e|------------------|------------------|------------------|------------------|
B|-5~~~~~---8-10-b16|-12/////---8-|-10----10----10-10|-10/12-12////-|
G|-5~~~~~-----------|------------------|-10----10----10-10|-10/12-12////-|
D|------------------|------------------|------------------|------------------|
A|------------------|------------------|------------------|------------------|
E|------------------|------------------|------------------|------------------|
   
e|------------------|------------------|------------------|------------------|
B|b13~~~~~~~~~~~~~~~|-8////////|/-----------6-/8-|b9~~~~r8~~~~6----|
G|------------------|------------------|-------------7-/9-|b10~~~r9~~~~7----|
D|------------------|------------------|------------------|------------------|
A|------------------|------------------|------------------|------------------|
E|------------------|------------------|------------------|------------------|

e|------------------|------------------|------------------|------------------|
B|b13~~~~~~~~~~~~~~~|-8////////|/-----------6-/8-|b9~~~~r8~~~~6----|
G|------------------|------------------|-------------7-/9-|b10~~~r9~~~~7----|
D|------------------|------------------|------------------|------------------|
A|------------------|------------------|------------------|------------------|
E|------------------|------------------|------------------|------------------|

e|------------------|------------------|------------------|------------------|
B|-8~~~~~~--5--8-51|-1~~~~~~~---------|----------------1-|-5--5--------5--5-|
G|-9----------------|-2~~~~~~~---------|----------------1-|-5--5--------5--5-|
D|------------------|------------------|------------------|------------------|
A|------------------|------------------|------------------|------------------|
E|------------------|------------------|------------------|------------------|
[ Tab from: http://www.guitartabs.cc/tabs/s/santo_johnny/sleepwalk_tab.html ]
e|------------------|------------------|------------------|------------------|
B|-1~~~~~~~-------8-|-10----10----10---|-8~~~~~~~~~~~~~~~-|-------------8----|
G|-0~~~~~~~-------9-|-10----10----10---|-9~~~~~~~~~~~~~~~-|------------------|
D|------------------|------------------|------------------|------------------|
A|------------------|------------------|------------------|------------------|
E|------------------|------------------|------------------|------------------|
   
e|------------------|------------------|------------------|------------------|
B|-10~~~~~~~10------|b16---r14----13---|-9~~~~~~~~9-------|b16---r14----13---|
G|-10~~~~~~~10------|------------------|-10~~~~~~~10------|------------------|
D|------------------|------------------|------------------|------------------|
A|------------------|------------------|------------------|------------------|
E|------------------|------------------|------------------|------------------|

e|------------------|------------------|------------------|------------------|
B|-8~~~~~~~~8-------|-10~~~~~~~--------|-8~~~~~~~~~~~~~~~~|-------------8----|
G|-9~~~~~~~~9--8--9-|-10~~~~~~~---8--9-|-9~~~~~~~~~~~~~~~~|------------------|
D|------------------|------------------|------------------|------------------|
A|------------------|------------------|------------------|------------------|
E|------------------|------------------|------------------|------------------|

e|------------------|------------------|------------------|------------------|
B|-10~~~~~~~10------|b16---r14----13---|-9~~~~~~~~9-------|b16---r14----13---|
G|-10~~~~~~~10------|------------------|-10~~~~~~~10------|------------------|
D|------------------|------------------|------------------|------------------|
A|------------------|------------------|------------------|------------------|
E|------------------|------------------|------------------|------------------|

e|------------------|-11----11----11---|-10~~~~~~~~~~~~~~~|------------------|
B|-8-----8-----8----|-10----10----10---|-12~~~~~~~~~~~~~~~|----------8--10-12|
G|-9-----9-----9----|------------------|------------------|------------------|
D|------------------|------------------|------------------|------------------|
A|------------------|------------------|------------------|------------------|
E|------------------|------------------|------------------|------------------|
   
e|------------------|------------------|------------------|------------------|
B|-------b13~~~~~~~~|-8////////|/-----------6-/8-|b9~~~~r8~~~~6----|
G|------------------|------------------|-------------7-/9-|b10~~~r9~~~~7----|
D|------------------|------------------|------------------|------------------|
A|------------------|------------------|------------------|------------------|
E|------------------|------------------|------------------|------------------|

e|------------------|------------------|------------------|------------------|
B|b13~~~~~~~~~~~~~~~|-8////////|/-----------6-/8-|b9~~~~r8~~~~6----|
G|------------------|------------------|-------------7-/9-|b10~~~r9~~~~7----|
D|------------------|------------------|------------------|------------------|
A|------------------|------------------|------------------|------------------|
E|------------------|------------------|------------------|------------------|
   
e|------------------|------------------|-------------------------------------|
B|-8~~~~~~--5--8-51|-1~~~~~~~---------|-1-5-5-4-3~~~~----8~~10~~b16~~12//////
G|-9----------------|-2~~~~~~~---------|---5-5-5-4~~~~-----------------------|
D|------------------|------------------|-------------------------------------|
A|------------------|------------------|-------------------------------------|
E|------------------|------------------|-------------------------------------|
  
 C      F7     C7
e|-0~~~~~~1~~~~~~0~~~~~~~~~~~~~~~~~~~~~~~~~~~~~~~~~~~~~~~~~~-----------------|
B|-1~~~~~~4~~~~~~1~~~~~~~~~~~~~~~~~~~~~~~~~~~~~~~~~~~~~~~--------------------|
G|-0~~~~~~2~~~~~~3~~~~~~~~~~~~~~~~~~~~~~~~~~~~~~~~~~-------------------------|
D|-2~~~~~~3~~~~~~2~~~~~~~~~~~~~~~~~~~~~~~~~~~~~~-----------------------------|
A|-3~~~~~~0~~~~~~3~~~~~~~~~~~~~~~~~~~~~~~~~~~--------------------------------|
E|-0~~~~~~x~~~~~~0~~~~~~~~~~~~~~~~~~~~~~~------------------------------------|
Comments