Santo And Johnny - Sleepwalk Chords & Tabs

 

Sleepwalk Chords & Tabs

Santo And Johnny Chords & Tabs

Version: 7 Type: Tab 0 ratings
1 star 2 stars 3 stars 4 stars 5 stars
comments

Sleepwalk Tab

e[---------------------------------------------------]
B[-------1-----------1-----------1-----------0-------]
G[-----0---0-------2---2-------2---2-------0---0-----]
D[---2-------2---2-------2---3-------3---0-------0---]
A[-3-----------0-------------------------------------]
E[-------------------------1-----------3-------------]

   			 Starting from 0:15 to 0:45 secs  

e[---------------------------------------------------------------------------------------]
B[-14-9-7-9-10-9-7-14-14-9-7-9-10-9----9----9--------------------------------------------]
G[----------------------------------10---10---10-6---------8-10-10-10-10-----------------]
D[-------------------------------------------------8-8-6-6---------------8-8-8-8-10------]
A[---------------------------------------------------------------------------------------]
E[---------------------------------------------------------------------------------------]

			 0:46  to 1:14

[ Tab from: http://www.guitartabs.cc/tabs/s/santo_and_johnny/sleepwalk_tab_ver_7.html ]
e[---------------------------------------------------------------------------------------]
B[-14-9-7-9-10-9-7-14-14-9-7-9-10-9---9----9---------------------------------------------]
G[---------------------------------10---10---10-6---------8-10-10-10-10--------------8-10]
D[------------------------------------------------8-8-6-6--------------10-11-8-8-8-8-----]
A[---------------------------------------------------------------------------------------]
E[---------------------------------------------------------------------------------------]


			1:16 to 1:45

                          
e[---------13-13-11-9----13-11-9----------------------13-11-9-------13-11-9----------------------]
B[---10-11------------10---------9-11-10-10-9---10-11---------10-10---------9-9-9-9-12-12-12-12-9]
G[-----------------------------------------------------------------------------------------------]
D[-11-----------------------------------------11-------------------------------------------------]
A[-----------------------------------------------------------------------------------------------]
E[-----------------------------------------------------------------------------------------------]



e[---------------------------------------------------------------------------------------]
B[-14-9-7-9-10-9-7-14-14-9-7-9-10-9---9----9---------------------------------------------]
G[---------------------------------10---10---10-6---------8-10-9-8-----------------------]
D[------------------------------------------------8-8-6-6--------------------------------]
A[---------------------------------------------------------------------------------------]
E[---------------------------------------------------------------------------------------]
Comments