Santo And Johnny - Sleepwalk Chords & Tabs

 

Sleepwalk Chords & Tabs

Santo And Johnny Chords & Tabs

Version: 6 Type: Tab 0 ratings
1 star 2 stars 3 stars 4 stars 5 stars
comments

Sleepwalk Tab

I tabbed this song in under two hours. I decided to tab it after watching "La Bamba",
in which the song is played near the end of the film. The following tabs are for the
main guitar part. Im still trying to figure out the chords played in the background
and the bass line. This song is an oldie so you'll need to mess around with an effects
board to get that vintage guitar sound. It is recomended that you let the notes ring
through out the song. I tried my best to make it sound as accurate as possible. Any
questions, comments, or tips on how to make this tab any better, e-mail me. Enjoy.

(Listen to the song first to get the rythym then try playing along to it.)

"Sleepwalk"
By: Santo & Johnny
Tabbed by: Aaron Rodriguez


E-------------------------|
B--9/11---11/18---/13-----|
G-------------------------|
D-------------------------|
A-------------------------|
E-------------------------|

E--6/9------------------------6/9--------------------------|
B-------9-9---7-7/9-10-9-7---------9-9---7-7/9-10-9-7------|
G----------------------------------------------------------|
D----------------------------------------------------------|
A----------------------------------------------------------|
E----------------------------------------------------------|

E---------------------------------------------------------------|
B--9----9-------------------------------------------------------|
G----10---10--8------------9/10-10-10-10-10-6------2-2-2-2-4----|
D---------------8----8-8-8--------------------------------------|
A---------------------------------------------------------------|
E---------------------------------------------------------------|

E--6/9------------------------6/9--------------------------|
B-------9-9---7-7/9-10-9-7---------9-9---7-7/9-10-9-7------|
G----------------------------------------------------------|
D----------------------------------------------------------|
A----------------------------------------------------------|
E----------------------------------------------------------|

E-----------------------------------------------|
B--9----9---------------------------------------|
G----10---10--8------------9/10-10-10-10-10-6---|
D---------------8----8-8-8----------------------|
A-----------------------------------------------|
E-----------------------------------------------|

E-----------------------------------------|
B--9/11---11/18---/13---------------------|
G----------------------------2-2-2-2-4----|
D-----------------------------------------|
A-----------------------------------------|
E-----------------------------------------|


E----------13-13-11-9-----13-13-11-9-----------------------------|
B-----9/11------------10-------------9---9-9-9-9/12-12-12-11-9---|
G----------------------------------------------------------------|
D----------------------------------------------------------------|
A--11------------------------------------------------------------|
E----------------------------------------------------------------|
[ Tab from: http://www.guitartabs.cc/tabs/s/santo_and_johnny/sleepwalk_tab_ver_6.html ]
E----------13-13-11-9-----13-13-11-9-----------------------------|
B-----9/11------------10-------------9---9-9-9-9/12-12-12-12-9---|
G----------------------------------------------------------------|
D----------------------------------------------------------------|
A--11------------------------------------------------------------|
E----------------------------------------------------------------|

E--6/9------------------------6/9--------------------------|
B------9----7-7/9-10-9-7----------9-9----7-7/9-10-9-7------|
G----------------------------------------------------------|
D----------------------------------------------------------|
A----------------------------------------------------------|
E----------------------------------------------------------|

E---------------------------------------------------------------|
B--9----9-------------------------------------------------------|
G----10---10--8------------9/10-10-10-10-10-6------2-2-2-2-4----|
D---------------8----8-8-8--------------------------------------|
A---------------------------------------------------------------|
E---------------------------------------------------------------|

E--6/9------------------------6/9--------------------------|
B-------9-9---7-7/9-10-9-7---------9-9---7-7/9-10-9-7------|
G----------------------------------------------------------|
D----------------------------------------------------------|
A----------------------------------------------------------|
E----------------------------------------------------------|

E-----------------------------------------------|
B--9----9---------------------------------------|
G----10---10--8------------9/10-10-10-10-10-6---|
D---------------8----8-8-8----------------------|
A-----------------------------------------------|
E-----------------------------------------------|

E----------------------------------------|
B--9/11---11/18---/13--------------------|
G---------------------------2-2-2-2-4----|
D----------------------------------------|
A----------------------------------------|
E----------------------------------------|

E----------13-13-11-9-----13-13-11-9-----------------------------|
B-----9/11------------10-------------9---9-9-9-9/12-12-12-11-9---|
G----------------------------------------------------------------|
D----------------------------------------------------------------|
A--11------------------------------------------------------------|
E----------------------------------------------------------------|

E----------13-13-11-9-----13-13-11-9-----------------------------|
B-----9/11------------10-------------9---9-9-9-9/12-12-12-12-9---|
G----------------------------------------------------------------|
D----------------------------------------------------------------|
A--11------------------------------------------------------------|
E----------------------------------------------------------------|

E--6/9------------------------6/9--------------------------|
B------9----7-7/9-10-9-7----------9-9----7-7/9-10-9-7------|
G----------------------------------------------------------|
D----------------------------------------------------------|
A----------------------------------------------------------|
E----------------------------------------------------------|

E---------------------------------------|
B--9----9-------------------------------|
G----10---10--8------------9/10-10-9-8--|
D---------------8----8-8-8--------------|
A---------------------------------------|
E---------------------------------------|

E------------------------------------|
B--9/11--11/18--/13------------------|
G------------------------2-2-2-2-6---|
D------------------------------------| END
A------------------------------------|
E------------------------------------|
Comments