Santo And Johnny - Sleepwalk Chords & Tabs

 

Santo And Johnny Chords & Tabs

Version: 2 Type: Tab 1 rating
1 star 2 stars 3 stars 4 stars 5 stars
comments

Sleepwalk Tab

   
#----------------------------------PLEASE NOTE---------------------------------#
#This file is the author's own work and represents their interpretation of the #
#song. You may only use this file for private study, scholarship, or research. #
#------------------------------------------------------------------------------#

Sleepwalk by Santo & Johnny
This is NOT the version from "La Bamba"(The best one I think)
(I have the original album, its really not the version from "la Bamba")

Transcribed by Markbo........markmark552@hotmail.com

For best effect use 2 Guitars, one on lead one plays chords

These are the main chords(in this order).
Play the root note once each then play the first 3 chords each 5 times
for the begining of the song. After that just play the chords


         C        Am      Fm      G
e--------3--------5-------1-------3------------------
B--------5--------5-------1-------3------------------
G--------5--------5-------1-------4------------------
D--------5--------7-------3-------5------------------
A-----3--3--------7-------3-------5------------------
E--------X-----5--5----1--1-------3------------------



Play this twice first.
e--------------8--10--12-----------------------------
B---8--10--12-----------------------7(s3)------------
G---------------------------2(s4)--------------------
D----------------------------------------------------
A----------------------------------------------------
E----------------------------------------------------




Fig.1
e-----8(s/3)--3-1--3-4-3-1----8(s/3)--3-1-3-4-3-1-3--
B----------------------------------------------------
G----------------------------------------------------
D----------------------------------------------------
A----------------------------------------------------
E----------------------------------------------------


[ Tab from: http://www.guitartabs.cc/tabs/s/santo_and_johnny/sleepwalk_tab_ver_2.html ]
e--0-3-0---------------------------------------------
B--------1--------1-1--3s/5-5---5-5--1---------------
G----------2-----------------------------------------
D----------------------------------------------------
A----------------------------------------------------
E----------------------------------------------------



e-----------------12-10----------12-10---------------
B--1----(s)10-10--------13-9-9---------13-8-8--------
G----------------------------------------------------
D----------------------------------------------------
A----------------------------------------------------
E----------------------------------------------------



e-----------------------------------12-10------------
B---8-8-10----10-8----1----(s)10-10--------13-9-9----
G----------9-----------------------------------------
D----------------------------------------------------
A----------------------------------------------------
E----------------------------------------------------

                                           Go back to fig.1
e--12-10---------------------------------------------
B---------13-8-8-8---11-11-11--8---8-6-8-6-----------
G----------------------------------------------------
D----------------------------------------------------
A----------------------------------------------------
E----------------------------------------------------


Did you know this song has lyrics?
They decided it sounded better without them but here they are.


Sleepwalk
Instead of dreaming
I Sleepwalk
Cause I lost you
And now what am I to do
What to do.
Can't believe that we're through
I don't care how much you tell me

Sleeptalk
Cause I miss you
While the memory of you
Lingers like a song
Darling, I was so wrong
But I'll be right some day

The night fills my lonely place
I see your face
I know, I miss you so
I still love you
And it drives me insane

Sleepwalk
Every night I just Sleepwalk
And when you walk inside the door
I will Sleepwalk no more

Sleepwalk
Every night I just Sleepwalk
And when you walk inside the door
I will Sleepwalk no more

I will Sleepwalk no more

I will Sleepwalk no more

Comments