Santana Everlast - Put Your Lights On Chords & Tabs

 

Put Your Lights On Chords & Tabs

Santana Everlast Chords & Tabs

Version: 5 Type: Tab 2 ratings
1 star 2 stars 3 stars 4 stars 5 stars
comments

Put Your Lights On Tab

   
These are just the chords; you can listen to the song to get the timing down.  It’s not hard.

    Am        C            G            Fmaj7   E
e|--0-0000----0--000-0-0---3--3-333-------0-0---0----------------------
b|--1-1110----1--333-1-0---0--0-000-------1-1---0----------------------
g|--2-2222----0--000-0-0---0--0-000-------2-2---0----------------------
d|--2-2222----2--222-2-2---0--0-000-------3-3---1----------------------
a|------------3--333-3-3---2--2-222-------------2----------------------
E|-------------------------3--3-333-------------2----------------------
[ Tab from: http://www.guitartabs.cc/tabs/s/santana_everlast/put_your_lights_on_tab_ver_5.html ]
It repeats itself for a while, then when it starts at the There’s monsters, sleepin’ under my bed- part, it switches to this:
                             
                             Then it goes 
                               to this:
     Am           E        
e|----0-0000------0--------       -------------------------------------
b|----1-1111------0--------       -------------------------------------
g|----2-2222------0--------       -------------------------------------
d|----2-2222------1--------       -3-3-3--4-4-4------------------------
a|----------------2--------       -0-0-0--0-0-0--3-3-3--1111-1-2-------
E|----------------2--------       -3-3-3--4-4-4--3-3-3--1111-1 0-------

And that’s pretty much the whole song.  Have fun.

                        

                          Tabbed by Jake Vogel
	
Comments