Santana Everlast - Put Your Lights On Chords & Tabs

 

Put Your Lights On Chords & Tabs

Santana Everlast Chords & Tabs

Version: 1 Type: Tab 2 ratings
1 star 2 stars 3 stars 4 stars 5 stars
comments

Put Your Lights On Tab

ARTIST: SANTANA+EVERLAST
SONG: PUT YOUR LIGHTS ON
TABBED BY: JOHN LEADMAN


THIS IS THE BEST SONG TO DATE I HAVE TABBED IT WAS ALSO THE FIRST SONG I LEARNED
IT WAS REAL HARD TO FIGURE OUT SINCE I WAS A BEGGINNER AND BASICALLY I STILL AM 
I HAVE ONLY BEEN PLAYING SINCE JUNE BUT HERE IS THE TAB IT IS TO MY KNOWLEDGE 100%ACCURATE IT IS MISSING THE PART SANTANA PLAYS WHICH IS REALLY GOOD BUT IT HAS ALL OF THE PARTS EVERLAST PLAYS SO ENJOY.

[ Tab from: http://www.guitartabs.cc/tabs/s/santana_everlast/put_your_lights_on_tab.html ]
       2x    1x    3x    1x    3x    1x    3x    3x    6x    3x    1x(let ring)
E/-----0-----0-----0-----0-----0-----0-----0-----3-----0-----0-----0-----]
B/-----1-----0-----1-----1-----3-----1-----0-----3-----3-----1-----0-----]
G/-----2-----2-----2-----0-----0-----0-----0-----0-----0-----2-----1-----]
D/-----2-----2-----2-----2-----2-----2-----2-----0-----0-----3-----2-----]
A/-----x-----x-----x-----3-----3-----3-----3-----2-----2-----3-----2-----]
E/-----x-----x-----x-----x-----x-----x-----x-----3-----3-----x-----x-----]



THIS IS PLAYED QUITE A FEW TIMES WHILE SANTANA JOINS IN AFTER EVERLAST DOES THE RIFF ABOVE ONCE. AND BELOW IS THE I GUESS YOU WOULD CALL IT THE CHORUS


       3x    3x    3x    2x    1x
E/-----x-----x-----x-----x-----x-----]
B/-----x-----x-----x-----x-----x-----]
G/-----5-----6-----x-----x-----0-----]
D/-----5-----6-----5-----3-----2-----]
A/-----3-----4-----5-----3-----2-----]
E/-----x-----x-----3-----1-----0-----]



THIS IS ALL I KNOW. THIS IS A VERY GOOD ACOUSTIC SONG AND I THINK EVERLAST IS ONE OF THE BEST ACOUSTIC ARTISTS OF THE LATE 90's THAT IS IT MY NAME IS JOHN LEADMAN 
Comments