Santana - The Game Of Love Chords & Tabs

 

The Game Of Love Chords & Tabs

Santana Chords & Tabs

Version: 2 Type: Tab 0 ratings
1 star 2 stars 3 stars 4 stars 5 stars
comments

The Game Of Love Tab

   
Song Title: The Game of Love
Artist/Band: Santana featuring Michelle Branch
Album: Shaman, 2002.

Tab by JC Rea(jcrp_21@hotmail.com)--

Symbols:

h=hammer-on
p=pull-off
/=slide-up
\=slide-down
b=bend
rb=release bend
~=left hand vibrato
///=tremelo picking

I've seen several tabs of this song in other websites, but they're not complete
because most tabbers only write main riffs or solos; it seems that they can't
hear all the guitar parts during this song.That's why I decided to make this tab.
I'm proud to say it's almost 100% accurate, and you'll find the tabs for all
guitar parts heard in this song.

CHORDS:

Em 022000
DMaj x00232
GMaj 320003
AMaj 002220
Bm 224432
F#m 244222

INTRO:
e|--------------|-------10-10-10-10-10/12--------------------|
B|----------10--|-10-12-------------------10h12-10h12-10h12--|
G|-9/11--9------|--------------------------------------------|
D|--------------|--------------------------------------------|
A|--------------|--------------------------------------------|
E|--------------|--------------------------------------------|

e|-------------------------------|
B|---------------10/12-10--------|
G|----9/11p9h11-----------11h14--|
D|-12----------------------------|
A|-------------------------------|
E|-------------------------------|

e|-------10-10-10-10-10-12-14-12b14-14r12--10-12p10-10h12-|
B|-10/12--------------------------------------------------|
G|--------------------------------------------------------|
D|--------------------------------------------------------|
A|--------------------------------------------------------|
E|--------------------------------------------------------|

FIRST VERSE:

 Em      DMaj
-------------
               Em            DMaj
 ----------------------------
 Em       DMaj
 ---------
                      Em            DMaj
 and boom---------------------------
e|--5/7\5----------|
B|--5/7\5--7-------|
G|------------7-7--|
D|-----------------|
A|-----------------|
E|-----------------|


e|-------------------------|
B|-------7-----------------|
G|---7-9---9-7-9--11p9h11--|
D|-9-----------------------|
A|-------------------------|
E|-------------------------|

e|------------|
B|------------|
G|-----4-6-7--|
D|-4h7--------|
A|------------|
E|------------|


e|--7p5------------------|
B|--7----7-7p5----5-7----|
G|--------------7-----7--|
D|-----------------------|
A|-----------------------|
E|-----------------------|

CHORUS(same chords as verse parts):


e|---------|
B|---------|
G|------7--|
D|--7h9----|
A|---------|
E|---------|


e|-----------|
B|-----------|
G|-9/11-9-7--|
D|-----------|
A|-----------|
E|-----------|

"We started with a kiss--------|
e|--7p5-7----------------------|
B|--7-----5/7--5---5h7p5-------|
G|---------------7--------7-7--|
D|-----------------------------|
A|-----------------------------|
E|-----------------------------|

"--------------- laughs" 
e|-----------------|
B|-----------------|
G|----4-7p4---4-7--|
D|--7-------7------|
A|-----------------|
E|-----------------|

"--------------- pain"
e|-----------------------------------------------|
B|----------------5-5-7-7/8--10b12-10-10-10~h12--|
G|---4-7p4---4-7---------------------------------|
D|-7-------7-------------------------------------|
A|-----------------------------------------------|
E|-----------------------------------------------|


SECOND VERSE(same chords and rythm as first one):

e|------------------|
B|-5h7-5-----5------|
G|-------7-4---7-7--|
D|------------------|
A|------------------|
E|------------------|


e|--------------|
B|--------------|
G|---5/7p5------|
D|-7-------7p4--|
A|--------------|
E|--------------|


e|--5/7\5/7--7-5h7-10--|
B|--5/7\5/7------------|
G|---------------------|
D|---------------------|
A|---------------------|
E|---------------------|

e|---------------------------------------------|
B|-------------10/12-------------------------5-|
G|-------------------9/11-9/11-9-7-9-------7---|
D|-------------------------------------5h7-----|
A|---------------------------------------------|
E|---------------------------------------------|


e|-------------------9-10~~~10---------------|
B|------------------------------10h12-10-----|
G|-------------------------------------------|
D|-------------------------------------------|
A|-------------------------------------------|
E|-------------------------------------------|


e|-------------------------------------|
B|-------------------------------------|
G|----------------------9h11-9--7h9-7--|
D|-------------------------------------|
A|-------------------------------------|
E|-------------------------------------|


e|-------------------------------|
B|-------------------------------|
G|-9-11-9-11-11--9-7-9-7-7--4h7--|
D|-------------------------------|
A|-------------------------------|
E|-------------------------------|

CHORUS:

" It----------------------------- this"
e|---------|
B|---------|
G|------7--|
D|--7h9----|
A|---------|
E|---------|

"-----------  of that"
e|-----------|
B|-----------|
G|-9/11-9-7--|
D|-----------|
A|-----------|
E|-----------|

"We started with a kiss-------|
e|--7p5-7---------------------|
B|--7-----5/7--5---5h7p5------|
G|---------------7-------7-7--|
D|----------------------------|
A|----------------------------|
E|----------------------------|

"--------------- laughs
e|----------------|
B|----------------|
G|---4-7p4---4-7--|
D|-7-------7------|
A|----------------|
E|----------------|
                Pain


e|--10h12-14--10-10--------|-14p12-------10h12--|
B|------------------12-12--|-------15p12--------|
G|-------------------------|--------------------|
D|-------------------------|--------------------|
A|-------------------------|--------------------|
E|-------------------------|--------------------|

"It's------------------- love"
e|------------------------------------------|
B|----12-10---------------7-----------------|
G|-11-------11-9/11-9-7-9---7-------------7-|
D|------------------------------------7-9---|
A|-------------------------------7-9--------|
E|------------------------------------------|

 Bm           F#m
-----------------
     GMaj                AMaj 
-------------------------
 Em            F#m 
------------------------
  GMaj       AMaj
-------

SOLO:
e|--------12b14///--12b14-14-14--12-10--12p10-10-10h12--|
B|-12h15------------------------------------------------|
G|------------------------------------------------------|
D|------------------------------------------------------|
A|------------------------------------------------------|
E|------------------------------------------------------|

e|-15-14/15-14-10---------------------|
B|-------------------------------10---|
G|-----------------9p7------7-9-------|
D|---------------------9p7------------|
A|------------------------------------|
E|------------------------------------|

e|----10-10-10-12-12h14-------17-------17-------17--|
B|-12--------------------14h15----14h15----14h15----|
G|--------------------------------------------------|
D|--------------------------------------------------|
A|--------------------------------------------------|
E|--------------------------------------------------|
[ Tab from: http://www.guitartabs.cc/tabs/s/santana/the_game_of_love_tab_ver_2.html ]
e|-17p14-17p14-17-17p14-17-17p14----17p14h17p14h17p14h17p14h17p14h17p14--|
B|-----------------------------------------------------------------------|
G|-----------------------------------------------------------------------|
D|-----------------------------------------------------------------------|
A|-----------------------------------------------------------------------|
E|-----------------------------------------------------------------------|

e|-17b19-19-19-19-17b19r17-14-17-14----14--|
B|----------------------------------17-----|
G|-----------------------------------------|
D|-----------------------------------------|
A|-----------------------------------------|
E|-----------------------------------------|

e|-14------------12-----------|-12-------------------------10-10-12-----|
B|----15-15-15------12-12h15--|----14/15\14-12-10-12-12-12--------------|
G|----------------------------|-----------------------------------------|
D|----------------------------|-----------------------------------------|
A|----------------------------|-----------------------------------------|
E|----------------------------|-----------------------------------------|

e|-------19-19-21-22-21----22\21p19--22/21p19--22/21p19--22/21p19--|
B|-17/19-----------------------------------------------------------|
G|-----------------------------------------------------------------|
D|-----------------------------------------------------------------|
A|-----------------------------------------------------------------|
E|-----------------------------------------------------------------|

e|-22-[22]b24--22-19~~~---22-19-19~~~--|--19-17-14----14--------------|
B|----------------------------|--------------------17----17-15-17-15--|
G|----------------------------|---------------------------------------|
D|----------------------------|---------------------------------------|
A|----------------------------|---------------------------------------|
E|----------------------------|---------------------------------------|


e|------------------------------------|
B|--------------------15~~~-14h16-14--|
G|------------------------------------|
D|------------------------------------|
A|------------------------------------|
E|------------------------------------|


e|-----------------------------------------|
B|--------------------------12-------------|
G|-----------------------------11-9-7-9-7--|
D|-----------------------------------------|
A|-----------------------------------------|
E|-----------------------------------------|


e|------------------------------------------------|
B|-----------------------14h15~~~-14h15p14--------|
G|-----------------------------------------16-14--|
D|------------------------------------------------|
A|------------------------------------------------|
E|------------------------------------------------|


e|--------------------------------------10-12-14-12-10-10-10\--|
B|-----------------------------------12------------------------|
G|-------------------------------------------------------------|
D|-------------------------------------------------------------|
A|-------------------------------------------------------------|
E|-------------------------------------------------------------|

"It just takes a litte bit of---------------------|
e|------------------------------------------------|
B|------------------------------------------------|
G|------------------------------------------------|
D|-----------------------------12\11--9\7----7h9--|
A|-----------------------------------------9------|
E|------------------------------------------------|

"A------------ laughs,----------------- pain
e|--------------------------------------------------------10-10h12--|
B|-----------------------------------------------10-12-12-----------|
G|---------------------------------------------9--------------------|
D|------------------------------------------12----------------------|
A|------------------------------------------------------------------|
E|------------------------------------------------------------------|

"----------------------------------------------- love"
e|------------------------14-15-14-15-17--10-10--|
B|-----------------------------------------------|
G|-----------------------------------------------|
D|-----------------------------------------------|
A|-----------------------------------------------|
E|-----------------------------------------------|


e|-------------------|
B|-------------------|
G|------7----11-9-7--|
D|-7h9---------------|
A|-------------------|
E|-------------------|


e|-17h19--17-17~~~--|
B|------------------|
G|------------------|
D|------------------|
A|------------------|
E|------------------|

"-------------the game of love"
e|-10/12----------------17-17p14-17p14-17-14--------------------------|
B|-------15-12-10-12-15----------------------17-15-17-15-17-17-12-12--|
G|--------------------------------------------------------------------|
D|--------------------------------------------------------------------|
A|--------------------------------------------------------------------|
E|--------------------------------------------------------------------|


e|-------12b14-14-14--12b14-14-12b14-14--12b14-14--12-14-12-14-14---------------12-----------|
B|-12-15-----------------------------------------------------------15p12--15p12----15-12-12--|
G|-------------------------------------------------------------------------------------------|
D|-------------------------------------------------------------------------------------------|
A|-------------------------------------------------------------------------------------------|
E|-------------------------------------------------------------------------------------------|

"(Make, make it)"
e|-17------------------------|
B|----19-17-15-17--15-15h17--|
G|---------------------------|
D|---------------------------|
A|---------------------------|
E|---------------------------|


e|----------------14p12p10h12---17--------------------------------------|
B|---------------------------------19-17-19--17h19-19--17-15--17-15h17--|
G|----------------------------------------------------------------------|
D|----------------------------------------------------------------------|
A|----------------------------------------------------------------------|
E|----------------------------------------------------------------------|


e|-----------------------10h12-10h12-10h12p10--|
B|---------------------------------------------|
G|---------------------------------------------|
D|---------------------------------------------|
A|---------------------------------------------|
E|---------------------------------------------|

FINAL SOLO:
e|-17/19-19-19--19-22-19--17-14-14-12----10h12-10h12-17\14-12-10--|
B|------------------------------------12--------------------------|
G|----------------------------------------------------------------|
D|----------------------------------------------------------------|
A|----------------------------------------------------------------|
E|----------------------------------------------------------------|

e|-12-14--12-14--12-14--12-14--12-14--12-14b17-17-17-17r14-12----10-12-10--------|
B|------------------------------------------------------------12----------12-12--|
G|-------------------------------------------------------------------------------|
D|-------------------------------------------------------------------------------|
A|-------------------------------------------------------------------------------|
E|-------------------------------------------------------------------------------|

e|-10-----------------------|-----------------------------12-10h12-14-17--|
B|----10/12-10----12-10-----|---------9h10-10h12h14-14h15-----------------|
G|-------------11-------11--|-11p9-11-------------------------------------|
D|--------------------------|---------------------------------------------|
A|--------------------------|---------------------------------------------|
E|--------------------------|---------------------------------------------|

e|-14-17-19--|
B|-----------|
G|-----------|
D|-----------|
A|-----------|
E|-----------|. . . END

Comments:jcrp_21@hotmail.com
Comments