Santana - Oye Como Va Correct Chords & Tabs

 

Oye Como Va Correct Chords & Tabs

Santana Chords & Tabs

Version: 1 Type: Bass Tab 0 ratings
1 star 2 stars 3 stars 4 stars 5 stars
comments

Oye Como Va Correct Bass Tab

#--------------------------------------Please Note-------------------------------------------#
#This file is the author's own work and represents their interpretation of the# 
#song. You may only use this file for private study, scholarship, or research.#
#------------------------------------------------------------------------------------------------#
from: elguapo1@adelphia.net

Title:  Oye Como Va (Correct Version)
 Bass Tab  

Notes: Hi guys. Once again, this is a correction as the other 
version that was posted on this site is way off. So hopefully I can help you out.
Enjoy!


Main Riff
G/---------------------------------------------------------/
D/---------------------------------------------------------/
A/---------------5------5--3---------------5------5--3-----/
E/------5------5------5-----------5------5-----------------/

[ Tab from: http://www.guitartabs.cc/tabs/s/santana/oye_como_va_correct_btab.html ]
Bridge
G/--------------------------------------------------------------------/
D/--------------------------------------------------------------------/
A/-----------------------------5--3-----------------------------------/
E/------5--5-5--5--5-5--5--5-5--5--------5--5--5-5--5--5-5--5---------/
     
       
G/----------------------------------------/--------------------------------------/
D/----------------------------------------/--------------------------------------/
A/----------3-5-------3-5-------3-5-------/-----------3-3-3---5-5-5--------------/
E/------5-5-------5-5-------5-5-----------/----5-5-5------------------5-5-5------/
     
  @1:36					  @2:04

G/-----------------------------------------------------------------------/
D/-----------------------------------------------------------------------/
A/----------3-3-3---5-5-5-----------3-3-3---5-5-5------------------------/
E/---5-5-5------------------5-5-5------------------5-5-5----5--5--5------/ 
    
  @3:14
Comments