Santana - El Farol Chords & Tabs

 

El Farol Chords & Tabs

Santana Chords & Tabs

Version: 1 Type: Tab 0 ratings
1 star 2 stars 3 stars 4 stars 5 stars
comments

El Farol Tab

#----------------------------------PLEASE NOTE--------------------------------#
#This file is the author's own work and represents their interpretation of the#
#song. You may only use this file for private study, scholarship, or research.#
#-----------------------------------------------------------------------------#

EL FAROL - SANTANA
----------------------------------------------------------------------------------------
ALBUM : SUPERNATURAL
TAB BY : CIRO BLAZEVIC (Croatia) 
email : cirobl@yahoo.com

BASS INTRO:

G|--------------------------------------------------------------------|
D|--------------------------------------------------------------------|
A|--------------------------------------------------------------------|
E|--0-3-0-5----0-3-0-5-3-5--------------------------------------------|

GUITAR:
  0:08
e|-----4-5-4------------4-5-4-5-4-5-4---------------------------------|
B|-5-6-------6-5----5-6---------------6--5-6-3h5--3-5-3---------------|
G|------------------------------------------------------5-------------|
D|--------------------------------------------------------------------|
A|--------------------------------------------------------------------|
E|--------------------------------------------------------------------|

[ Tab from: http://www.guitartabs.cc/tabs/s/santana/el_farol_tab.html ]
  0:18 
e|-8-----8-7-----5-----------5-4--------------------------------------|
B|---5h6-----3h5-----------6-----6-3/5--------------------------------|
G|-----------------5h7-4-7------------5/7-5-7-9-7-9-------------------|
D|--------------------------------------------------------------------|
A|--------------------------------------------------------------------|
E|--------------------------------------------------------------------|
  0:37
e|-8-------8-7---3---------5----------5-4h5p4-------------------------|
B|---5h6-5-----3---3h5-5-5----------6---------6-3h5-3-1h3-3-5-3-------|
G|---------------------------5h7-4-7----------------------------------|
D|--------------------------------------------------------------------|
A|--------------------------------------------------------------------|
E|--------------------------------------------------------------------|
  0:56
e|--------------------------------------------------------------------|
B|---5---5-----6-6/8-5-------5----------------------------------------|
G|-----5---7-7-----------5h7---7-7--4-7-5-5---------------------------|
D|-7-------------------7----------------------------------------------|
A|--------------------------------------------------------------------|
E|--------------------------------------------------------------------|
  1:05
e|--------------------------------------------------------------------|
B|---5---5---5--6-6/8-5---5-------5-----------------------------------|
G|-----5---7------------7-----5h7---7-4-------------------------------|
D|-7------------------------7-----------6---9-7-----------------------|
A|----------------------------------------7---------------------------|
E|--------------------------------------------------------------------|
  1:14
e|--------------------------------------------------------------------|
B|-----------------------5--8-6-5-------------------------------------|
G|-----4---4-5-4-5-7-5-7----------------------------------------------|
D|-6-7---7------------------------------------------------------------|
A|--------------------------------------------------------------------|
E|--------------------------------------------------------------------|
  1:23
e|-8-----8-7-------5-----------5-4------------------------------------|
B|---5h6-----3-5-5-----------6-----6-3/5-3-1h3-5-3-5------------------|
G|-------------------5h7-4-7------------------------------------------|
D|--------------------------------------------------------------------|
A|--------------------------------------------------------------------|
E|--------------------------------------------------------------------|
 


  1:41
e|-8-----8-7---3-----------5-----------5-4----------------------------|
B|---5h6-----3---3h5-5-5-5-----------6-----6-3/5-3-1h3-5-3-5----------|
G|---------------------------5h7-4-7----------------------------------|
D|--------------------------------------------------------------------|
A|--------------------------------------------------------------------|
E|--------------------------------------------------------------------|
  2:01
e|--------------------------------------------------------------------|
B|---5---5-----6-6/8-5-------5----------------------------------------|
G|-----5---7-7-----------5h7---7-4------------------------------------|
D|-7-------------------7-----------6--7h9-7---------------------------|
A|----------------------------------7---------------------------------|
E|--------------------------------------------------------------------|
  2:10
e|--------------------------------------------------------------------|
B|---5---5---5-6-6/8-5---5-------5------------------------------------|
G|-----5---7-----------7-----5h7---7-4--------------------------------|
D|-7-----------------------7-----------6----7h9-7---------------------|
A|---------------------------------------7----------------------------|
E|--------------------------------------------------------------------|
  2:19
e|--------------------------5-----------------------------------------|
B|-------5--------5-8-6-5-6---6-5h6p5---5-----------------------------|
G|---5h7----7-5-7---------------------7-------------------------------|
D|-7------------------------------------------------------------------|
A|--------------------------------------------------------------------|
E|--------------------------------------------------------------------|
  2:24
e|--------------------------------------------------------------------|
B|-------5-------------------------------------5-8-6-5----------------|
G|---5h7---7-4---------------4---4-5-4-5-7-5-7------------------------|
D|-7-----------6---7h9-7-6-7---7--------------------------------------|
A|---------------7----------------------------------------------------|
E|--------------------------------------------------------------------|
  2:35
e|---5-7-8-----8-7-------5-----------5-4h5p4--------------------------|
B|-5-------5h6-----3h5-5-----------6---------6-3/5-3-1h3-5-3-5--------|
G|-------------------------5h7-4-7------------------------------------|
D|--------------------------------------------------------------------|
A|--------------------------------------------------------------------|
E|--------------------------------------------------------------------|




Comments