Santana - El Farol Chords & Tabs

 

El Farol Chords & Tabs

Santana Chords & Tabs

Version: 1 Type: Bass Tab 0 ratings
1 star 2 stars 3 stars 4 stars 5 stars
comments

El Farol Bass Tab

   
Santana_El Farol

Basstab by Jan Bjorklund, Finland; 
jani_bjorklund@yahoo.se 
You are welcome to request for basstabs!
Bienvenidos a pedirme transcripciones para el bajo!
Fingering and positions as suggested by TablEdit. 

Premium TablEdited by Jan Bjorklund
Tuning : B E A D G 	Time Signature: 4/4

 |       |       |       |        |       |       |       |        
|--------------------------------|--------------------------------|
|--------------------------------|--------------------------------|
|--------------------------------|--------------------------------|
|--------3-------5-------3/--0---|--------3-------5-------3---5---|
|----5-------5-------------------|----5-------5-------------------|

 |       |       |       |        |       |       |       |        
|--------------------------------|--------------------------------|
|--------------------------------|--------------------------------|
|--------------------------------|----------------5-------3-------|
|--------3-------5-------3/--0---|--------3-------------------3---|
|----3h5-----5-------------------|----5-------5-------------------|

 |       |       |       |        |       |       |       |        
|--------------------------------|--------------------------------|
|--------------------------------|--------------------------------|
|--------------------------------|--------------------------------|
|--------3-------5-----------3---|--------3-------5-------3---5---|
|----5-------5-------------------|----5-------5-------------------|

 |       |       |       |        |       |       |       |        
|--------------------------------|--------------------------------|
|--------------------------------|--------------------------------|
|--------------------------------|--------------------------------|
|--------3-------5p----------3---|----5-------------------3-------|
|----3h5-----5-------------------|--------1---1---3---5-------5---|

 |       |       |       |        |       |       |       |        
|--------------------------------|--------------------------------|
|--------------------------------|--------------------------------|
|--------------------------------|--------------------------------|
|----------------5---------------|--------------------------------|
|------------5-------------------|------------1---3---------------|

 |       |       |       |        |       |       |       |        
|--------------------------------|--------------------------------|
|--------------------------------|--------------------------------|
|--------------------------------|--------------------------------|
|----------------3/----------1---|----------------2---------------|
|------------3-------------------|------------1-------------------|

 |       |       |       |        |       |       |       |        
|--------------------------------|--------------------------------|
|--------------------------------|--------------------------------|
|--------------------------------|--------------------------------|
|----------------1---------------|----------------1---------------|
|------------1-------------------|------------1-------------------|

 |       |       |       |        |       |       |       |        
|--------------------------------|--------------------------------|
|--------------------------------|--------------------------------|
|--------------------------------|--------------------------------|
|----------------0---------------|----------------3-------3-------|
|------------0-------------------|------------5---------------5---|

 |       |       |       |        |       |       |       |        
|--------------------------------|--------------------------------|
|--------------------------------|--------------------------------|
|--------------------------------|--------------------------------|
|----------------5---------------|------------3-------------------|
|------------5-------------------|--------3-------3/----------1---|

 |       |       |       |        |       |       |       |        
|--------------------------------|--------------------------------|
|--------------------------------|--------------------------------|
|--------------------------------|--------------------------------|
|----------------3/----------1---|----------------2---------------|
|------------3-------------------|------------2-------------------|

 |       |       |       |        |       |       |       |        
|--------------------------------|--------------------------------|
|--------------------------------|--------------------------------|
|--------------------------------|--------------------------------|
|----------------1---------------|--------1---3---1---------------|
|------------0-------------------|--------------------------------|

 |       |       |       |        |       |       |       |        
|--------------------------------|--------------------------------|
|--------------------------------|--------------------------------|
|--------------------------------|--------------------------------|
|0-----------0---0---------------|5-------------------------------|
|--------------------------------|------------5---5-------5-------|

 |       |       |       |        |       |       |       |        
|--------------------------------|--------------------------------|
|--------------------------------|--------------------------------|
|--------------------------------|--------------------------------|
|5-------------------------------|------------------------5---5---|
|------------3-----------5---5---|------------3-------------------|

 |       |       |       |        |       |       |       |        
|--------------------------------|--------------------------------|
|--------------------------------|--------------------------------|
|--------------------------------|--------------------------------|
|--------------------1-------0---|------------------------5---5---|
|------------3-------------------|------------3-------------------|

 |       |       |       |        |       |       |       |        
|--------------------------------|--------------------------------|
|--------------------------------|--------------------------------|
|--------------------------------|--------------------------------|
|--------------------1-------0---|--------4---------------5---5---|
|------------3-------------------|------------3-------------------|

 |       |       |       |        |       |       |       |        
|--------------------------------|--------------------------------|
|--------------------------------|--------------------------------|
|--------------------------------|----------------------------0---|
|--------------------1-------0---|----0---0---0---0-------0-------|
|------------3-------------------|--------------------------------|

 |       |       |       |        |       |       |       |        
|--------------------------------|--------------------------------|
|--------------------------------|--------------------------------|
|--------------------------------|--------------------------------|
|------------4---------------3---|------------2---------------1---|
|--------------------------------|--------------------------------|

 |       |       |       |        |       |       |       |        
|--------------------------------|--------------------------------|
|--------------------------------|--------------------------------|
|--------------------------------|--------------------------------|
|--------------------------------|--------------------------------|
|--------------------------------|5/----------------------0-------|

 |       |       |       |        |       |       |       |        
|--------------------------------|--------------------------------|
|--------------------------------|--------------------------------|
|--------------------------------|------------0-------------------|
|--------3-------5/----------3---|--------------------------------|
|----5-------5-------------------|--------3-------3---------------|

 |       |       |       |        |       |       |       |        
|--------------------------------|--------------------------------|
|--------------------------------|--------------------------------|
|--------------------------------|--------------------------------|
|----------------3---------------|----------------2---------------|
|----3---5---3-------------------|------------1-------------------|

 |       |       |       |        |       |       |       |        
|--------------------------------|--------------------------------|
|--------------------------------|--------------------------------|
|--------------------------------|--------------------------------|
|1-----------1---1---------------|--------------------------------|
|--------------------------------|----3---5---3---6---------------|

 |       |       |       |        |       |       |       |        
|--------------------------------|--------------------------------|
|--------------------------------|--------------------------------|
|--------------------------------|--------------------------------|
|--------------------------------|----3h5-----3-----------3-------|
|------------5---5---------------|--------------------5-------5---|

 |       |       |       |        |       |       |       |        
|--------------------------------|--------------------------------|
|--------------------------------|--------------------------------|
|--------------------------------|--------------------------------|
|----------------5---------------|----5-------5-------------------|
|------------5-------------------|----------------3---------------|

 |       |       |       |        |       |       |       |        
|--------------------------------|--------------------------------|
|--------------------------------|--------------------------------|
|--------------------------------|--------------------------------|
|--------1-------3---------------|------------3---2---------------|
|----3-------3-------------------|----1h--3-----------------------|

 |       |       |       |        |       |       |       |        
|--------------------------------|--------------------------------|
|--------------------------------|--------------------------------|
|--------------------------------|--------------------------------|
|1-----------1---1---------------|----------------1---------------|
|--------------------------------|----1---3---1-------------------|

 |       |       |       |        |       |       |       |        
|--------------------------------|--------------------------------|
|--------------------------------|--------------------------------|
|--------------------------------|--------------------------------|
|0-----------0---0---------------|5-----------------------3---5---|
|--------------------------------|------------5---5---------------|

 |       |       |       |        |       |       |       |        
|--------------------------------|--------------------------------|
|--------------------------------|--------------------------------|
|--------------------------------|--------------------------------|
|5-------------------1-------0---|------------------------5---5---|
|------------3-------------------|------------3-------------------|

 |       |       |       |        |       |       |       |        
|--------------------------------|--------------------------------|
|--------------------------------|--------------------------------|
|--------------------------------|--------2---------------0---0---|
|--------------------1-------0---|----4---------------------------|
|------------3-------------------|5-----------3-------------------|
[ Tab from: http://www.guitartabs.cc/tabs/s/santana/el_farol_btab.html ]
 |       |       |       |        |       |       |       |        
|--------------------------------|--------------------------------|
|--------------------------------|--------------------------------|
|--------------------------------|--------------------------------|
|--------------------1-------0---|------------------------5---5---|
|------------3-------------------|------------3-------5-----------|

 |       |       |       |        |       |       |       |        
|--------------------------------|--------------------------------|
|--------------------------------|------------2-------------------|
|--------------------------------|----------------3---------------|
|--------------------1-------0---|--------------------0---5---5---|
|------------3---3-----1h3-------|--------------------------------|

 |       |       |       |        |       |       |       |        
|--------------------------------|--------------------------------|
|--------------------------------|--------------------------------|
|--------------------------------|------------------------0---0---|
|--------3-----------1-------0---|--------4-----------------------|
|------------3-------------------|------------3-------------------|

 |       |       |       |        |       |       |       |        
|--------------------------------|--------------------------------|
|--------------------------------|--------------------------------|
|------------0-------------------|----------------------------0---|
|--------------------1-------0---|------------0-----------0-------|
|----------------3-------3-------|--------------------------------|

 |       |       |       |        |       |       |       |        
|--------------------------------|--------------------------------|
|--------------------------------|--------------------------------|
|--------------------------------|--------------------------------|
|------------4---------------3---|------------2---------------1---|
|--------------------------------|--------------------------------|

 |       |       |       |        |       |       |       |        
|--------------------------------|--------------------------------|
|--------------------------------|--------------------------------|
|--------------------------------|--------------------------------|
|--------------------------------|--------------------------------|
|----------------------------5---|----------------------------0---|

 |       |       |       |        |       |       |       |        
|--------------------------------|--------------------------------|
|--------------------------------|--------------------------------|
|--------------------------------|------------0-------------------|
|----0---3---0---5/--------------|--------------------------------|
|--------------------------------|--------1-------3---------------|

 |       |       |       |        |       |       |       |        
|--------------------------------|--------------------------------|
|--------------------------------|--------------------------------|
|--------------------------------|--------------------------------|
|----------------3---------------|------------3---2---------------|
|----3---5---3-------------------|----1---------------------------|

 |       |       |       |        |       |       |       |        
|--------------------------------|--------------------------------|
|--------------------------------|--------------------------------|
|--------------------------------|--------------------------------|
|1-----------1---1---------------|--------0-------1-------1-------|
|--------------------------------|----3-------3-------------------|

 |       |       |       |        |       |       |       |        
|--------------------------------|--------------------------------|
|--------------------------------|--------------------------------|
|--------------------------------|--------------------------------|
|0-----------0---0---------------|----5---3-----------------------|
|--------------------------------|----------------5-------1-------|

 |       |       |       |        |       |       |       |        
|--------------------------------|--------------------------------|
|--------------------------------|--------------------------------|
|0---------------0---------------|--------------------------------|
|----0---3---0-----------3/--1---|--------------------------------|
|--------------------------------|--------3---1---3-------3-------|

 |       |       |       |        |       |       |       |        
|--------------------------------|--------------------------------|
|--------------------------------|--------------------------------|
|--------------------------------|--------------------------------|
|--------1-------3---------------|------------3---2---------------|
|----3-------3-------------------|----1---------------------------|

 |       |       |       |        |       |       |       |        
|--------------------------------|--------------------------------|
|--------------------------------|--------------------------------|
|--------------------------------|--------------------------------|
|----------------1---------------|----------------1---------------|
|----1---3---3-------------------|--------3---1-------------------|

 |       |       |       |        |       |       |       |        
|--------------------------------|--------------------------------|
|--------------------------------|--------------------------------|
|--------------------------------|--------------------------------|
|--------------------------------|5---------------3-----3h5-------|
|5---5---5---5-------5-------5---|------------5-------5-----------|

 |       |       |       |        |       |       |       |        
|--------------------------------|--------------------------------|
|--------------------------------|--------------------------------|
|--------------------------------|--------------------------------|
|5---5---5---3---5-------5/------|--------------------------------|
|--------------------------------|----1---2---1---3---------------|

 |       |       |       |        |       |       |       |        
|--------------------------------|--------------------------------|
|--------------------------------|--------------------------------|
|----------------0---------------|3---3---------------------------|
|--------1---------------3-------|------------3---2-------2-------|
|----3-3-----3-------------------|--------------------------------|

 |       |       |       |        |       |       |       |        
|--------------------------------|--------------------------------|
|--------------------------------|--------------------------------|
|--------------------------------|--------0-----------------------|
|1---1-------1---1---------------|----3-------3---1-------1-------|
|--------------------------------|--------------------------------|

 |       |       |       |        |       |       |       |        
|--------------------------------|--------------------------------|
|--------------------------------|--------------------------------|
|--------------------------------|--------------------------------|
|0-------0---0---0-----------4---|5-----------------------3-------|
|--------------------------------|------------5---5---------------|

 |       |       |       |        |       |       |       |        
|--------------------------------|--------------------------------|
|--------------------------------|--------------------------------|
|--------------------------------|--------------------------------|
|5---3---3---4---5-------5-------|--------------------------------|
|--------------------------------|----1---3---1---3---------------|

 |       |       |       |        |       |       |       |        
|--------------------------------|--------------------------------|
|--------------------------------|--------------------------------|
|--------------------------------|------------3-------------------|
|--------1-------3---------------|----------------2---------------|
|----3-------3-------------------|1---1-----------------------3---|

 |       |       |       |        |       |       |       |        
|--------------------------------|--------------------------------|
|--------------------------------|--------------------------------|
|--------------------------------|--------------------------------|
|1-----1-----1---1---------------|--------1-------1---------------|
|--------------------------------|----1-------1-------------------|

 |       |       |       |        |       |       |       |        
|--------------------------------|--------------------------------|
|--------------------------------|--------------------------------|
|--------------------------------|--------------------------------|
|------------4-------7-------4---|5-----3-5-----3-5-----3---------|
|5-------------------------------|----5-------5-------5---3---5---|

 |       |       |       |        |       |       |       |        
|--------------------------------|--------------------------------|
|--------------------------------|--------------------------------|
|--------------------------------|--------------------------------|
|5---5---3---------------5-------|------------5-------------------|
|------------5---3---1h3-----3---|----------------3---------------|

 |       |       |       |        |       |       |       |        
|--------------------------------|--------------------------------|
|--------------------------------|--------------------------------|
|--------------------------------|--------------------------------|
|----------------3-------3---3---|------------3---2---------------|
|----3---5---3-------------------|----1---------------------------|

 |       |       |       |        |       |       |       |        
|--------------------------------|--------------------------------|
|--------------------------------|--------------------------------|
|--------------------------------|--------------------------------|
|----------------1-------1---1---|----------------1-------1---1---|
|----1---3---1-------------------|----1---3---1-------------------|

 |       |       |       |        |       |       |       |        
|--------------------------------|--------------------------------|
|--------------------------------|--------------------------------|
|--------------------------------|--------------------------------|
|3h5-----------------------------|3h5-5---3-----------------------|
|--------5---5-------5---5---5---|------------5---3h5-5---3---1---|

 |       |       |       |        |       |       |       |        
|--------------------------------|--------------------------------|
|--------------------------------|--------------------------------|
|--------------------------------|--------------------------------|
|3/5-----------------------------|--------------------------------|
|------------1---1-------2-------|3---------------3-------3-------|
(Fade ending)
 |       |       |       |        |       |       |       |        
|--------------------------------|--------------------------------|
|--------------------------------|--------------------------------|
|--------------------------------|--------------------------------|
|------1h3---1---3-----------3---|--------3---3---2---------------|
|----3---------------------------|----1---------------------------|

 |       |       |       |        |       |       |       |        
|--------------------------------|--------------------------------|
|--------------------------------|--------------------------------|
|--------------------------------|--------------------------------|
|1---1-------1---1---------------|----------------1-------1-------|
|--------------------------------|----1---3---1-------------------|

 |       |       |       |        |       |       |       |        
|--------------------------------|--------------------------------|
|--------------------------------|--------------------------------|
|----------------------------0---|0-------------------------------|
|----0---0---0-----------0-------|----0-------0---0---0---0---0---|
|----------------1---------------|--------------------------------|


Created with TablEdit http://www.tabledit.com/
Comments