Sans Souci - What I Feel Chords & Tabs

 

What I Feel Chords & Tabs

Sans Souci Chords & Tabs

Version: 1 Type: Tab 0 ratings
1 star 2 stars 3 stars 4 stars 5 stars
comments

What I Feel Tab

Verse/Intro
E---------------------------------------
B---------------------------------------
G-----0---0----2---2----3---3----5---5--
D----2-2-2-2--2-2-2-2--3-3-3-3--5-5-5-5-
A---3---3----0---0----1---1----3---3----
E---------------------------------------
[ Tab from: http://www.guitartabs.cc/tabs/s/sans_souci/what_i_feel_tab.html ]
Bridge
E-----
B-----
G---2-
D---2-
A-----
E-----

Chorus
E-----------------------------------
B-----------------------------------
G-----------------------------------
D---0-0-0-0-2-2-2-2-3-3-3-3-5-5-5-5-
A---2-2-2-2-2-2-2-2-3-3-3-3-5-5-5-5-
E---3-3-3-3-0-0-0-0-1-1-1-1-3-3-3-3-
Comments