Sans Souci - Dreams Chords & Tabs

 

Dreams Chords & Tabs

Sans Souci Chords & Tabs

Version: 1 Type: Tab 0 ratings
1 star 2 stars 3 stars 4 stars 5 stars
comments

Dreams Tab

E-------------------------------
B-------------------------------
G-----------------5-5-5-5-5-6-6-
D---5-5-5-5-5-6-6-x-x-x-x-x-x-x-
A---5-5-5-5-5-6-6-3-3-3-3-3-4-4-
E---3-3-3-3-3-4-4---------------
[ Tab from: http://www.guitartabs.cc/tabs/s/sans_souci/dreams_tab.html ]
E-------------------------------
B-------------------------------
G-----------------5-5-5-5-5-6-6-
D---5-5-5-5-5-6-6-x-x-x-x-x-x-x-
A---5-5-5-5-5-6-6-3-3-3-3-3-4-4-
E---3-3-3-3-3-4-4---------------
[ Tab from: http://www.guitartabs.cc/tabs/s/sans_souci/dreams_tab.html ]
E-------------------------
B-------------------------
G-----------------5-5-5-6-
D---5-5-5-5-5-6-6-x-x-x-x-
A---5-5-5-5-5-6-6-3-3-3-4-
E---3-3-3-3-3-4-4---------
Comments