Sangue Demonio - Sentenced To Hell Chords & Tabs

 

Sentenced To Hell Chords & Tabs

Sangue Demonio Chords & Tabs

Version: 1 Type: Tab 0 ratings
1 star 2 stars 3 stars 4 stars 5 stars
comments

Sentenced To Hell Tab

"Sentenced to Hell"
 by Sangue Demonio  -  www.ampcast.com/SangueDemonio
 transcribed by tom kirk

 okeedokers this song is a pain in the butt to figure out but it's really easy to play,
just kinda fast. just do whatever i say to below and you'll be able to play it. you can
listen to it somewhere on www.ampcast.com. 

~+~+~+~+~+~+~+~+~+~+~+~+~+~+~+~+~+~+~+~+~+~+~+~+~+~+~+~+~+~+~+~+~+~+~+~
 

(1) guitar I - play this x2 for intro
|-----------------------------------------------------------------|
|-----------------------------------------------------------------|
|-4-4-4-4-4-4-4-4-4-4-4-4-4-4-4-4-----------------6-6-6-6-6-6-6-6-|
|-4-4-4-4-4-4-4-4-4-4-4-4-4-4-4-4-2-2-2-2-2-2-2-2-6-6-6-6-6-6-6-6-|
|-2-2-2-2-2-2-2-2-2-2-2-2-2-2-2-2-0-0-0-0-0-0-0-0-4-4-4-4-4-4-4-4-|
|-----------------------------------------------------------------|


(1) guitar II - silent during intro


(2) guitar II - play this riff x4    guitar I - play this riff x2
|-----------------------------------------------------------------|
|-----------------------------------------------------------------|
|-4-4-4-4-4-4-4-4-4-4-4-4-------------------------6-6-6-6-6-6-6-6-|
|-4-4-4-4-4-4-4-4-4-4-4-4-----0-2-2-2-2-2-2-2-2-2-6-6-6-6-6-6-6-6-|
|-2-2-2-2-2-2-2-2-2-2-2-2-2-4-----0-0-0-0-0-0-0-0-4-4-4-4-4-4-4-4-|
|-----------------------------------------------------------------|

[ Tab from: http://www.guitartabs.cc/tabs/s/sangue_demonio/sentenced_to_hell_tab.html ]
(3) guitar I - play this x1 while guitar II continues playing the part above
|-------------------------7-5-----5---------------9---------------|
|-0---------------------------7-5---------------------------------|
|-----------------------------------------------------------------|
|-----------------------------------------------------------------|  
|-----------------------------------------------------------------|
|-----------------------------------------------------------------|


|-7--5------------------------------------------------------------|
|-------7--6--5--3--3p2-3--2--------------------2-----------------|
|-----------------------------2-----------------------------------|
|-----------------------------------------------------------------|
|-----------------------------------------------------------------|
|-----------------------------------------------------------------|


(4) guitar I & II - play this x4 while the singer says something about being sentenced to hell
|------------------------|
|------------------------|
|-4--4--4--4--2-2-2-2----|
|-4--4--4--4-2-2-2-2----|
|-2--2--2--2--0-0-0-0----|
|------------------------|

you should be able to get it from here just play (2) four times for each verse. listen to
the song at the site i mentioned above for timing and when you play each thing and crap.
hope this helped some. this is my second tab so duh it sucks. oh well. e-mail me at
guitarloser23@yahoo.com. i'm working on getting "She Carved Her Name in Blood" and "Black
Castle of Armitarious" so that'll be cool, except that the tabs will suck. the first
intro isn't correct, it's supposed to sound kinda like the one in the Hell song by Sum41,
except this one is cooler. i'll have that later.
Comments