Sandy Grieve - Track Chords & Tabs

 

Track Chords & Tabs

Sandy Grieve Chords & Tabs

Version: 2 Type: Tab 0 ratings
1 star 2 stars 3 stars 4 stars 5 stars
comments

Track Tab

   
TRACK4.TAB

This TAB transcription was created using TAB MASTER version 1.0
If you enjoy using this program, please consider telling the author
about it: Ofir Zwebner, e-mail: ofirz1@ccsg.tau.ac.il
                    snail-mail: Ehoud 10, Tel Aviv, 69936, Israel

This program is freeware, but it took me some work to make it, so
your financial contribution is welcome.
[ Tab from: http://www.guitartabs.cc/tabs/s/sandy_grieve/track_tab_ver_2.html ]
--------------------------------------------------------------------


e:--------------------------------|
B:--------------------------------|
G:--------------------------------|
D:-9-9-999-9-99-44-5-5-5-55-55----|
A:-9-9-999-9-99-44-5-5-5-55-55----|
E:-7-7-777-7-77-22-3-3-3-33-33-3h6|

e:----------------------------|
B:----------------------------|
G:----12-10-9-------77-5-4----|
D:----12-10-9-9-999-77-5-4-5-4|
A:3---10-8--7-9-999-55-3-2-5-4|
E:------------7-777--------3-2|
Comments