Sandwich - Two Trick Pony Chords & Tabs

 

Two Trick Pony Chords & Tabs

Sandwich Chords & Tabs

Version: 3 Type: Tab 0 ratings
1 star 2 stars 3 stars 4 stars 5 stars
comments

Two Trick Pony Tab

   
2 trick pony, sandwich
tabbed by:  Ino_tanni

   :: intro & verse

e| ---------------------------------------------------------------------|
B| ---------------------------------------------------------------------|
G| ---------------------------------------------------------------------|
D| ---------------------------------------------------------------------|
A| ----4------------------4---------------------------------------------|
E| ---------5---5---5---------5----5------3-----------------------------|

pag sa verse palm mute nio lng


chorus
[ Tab from: http://www.guitartabs.cc/tabs/s/sandwich/two_trick_pony_tab_ver_3.html ]
e| ---------------------------------------------------------------------|
B| ---------------------------------------------------------------------|
G| ---------------------------------------------------------------------|
D| -------7-----7-------------------------------------------------------|
A| -------5------5---------4-------------------4------------------------|
E| --------------------------------5---5---5-------5--5---3-------------|
              D       D

    d song plays 2 guitars in d chor, but i dont feel like putting it here
 NYAHAHA!!   figure it out yourselves,

after chorus 2 :    riff


e| -------------------------------------------------------------------|
B| -------------------------------------------------------------------|
G| -------------------------------------------------------------------|
D| -------------------------------------------------------------------|
A| --4--------4--------------------4-4-4------------------------------|
E| -------5---------5-5-5---------------------------------------------|
                            ^^^^^^           ^^^^^^^
             semi fast picking       semi fast pick...

if u want to add some solo's , ad-libs,  Am penta gmitin nio, kunin nio sa A#,
      meaning start d Am penta  sa A#.

enjoi!

     suggestions comments,      mail me

                       V V V V
       Ino_tanni@pinoymusika.com
Comments