Sandwich - Two Trick Pony Live Chords & Tabs

 

Two Trick Pony Live Chords & Tabs

Sandwich Chords & Tabs

Version: 1 Type: Bass Tab 0 ratings
1 star 2 stars 3 stars 4 stars 5 stars
comments

Two Trick Pony Live Bass Tab

   
Intro:

wait till drum enters

G|-------------------------------------------|
D|-------------------------------------------|
A|-----------------4-5------------4----------|
E|-3--5-5--3-5-3-5-------3--5-5-5---5-5--3-3-|

Verse:

G|-------------------------------------------|
D|-------------------------------------------|
A|-----------------4-5------------4----------|
E|-3--5-5--3-5-3-5-------3--5-5-5---5-5--3-3-|

Chorus:

G|---------------------------------|
D|---------------------------------|
A|-5-5-5-5-5-5-5-5-5-5-5-5-5-5-5-5-|
E|---------------------------------|

G|-------------------------------------------|
D|-------------------------------------------|
A|-----------------4-5------------4----------|
E|-3--5-5--3-5-3-5-------3--5-5-5---5-5--3-3-|
[ Tab from: http://www.guitartabs.cc/tabs/s/sandwich/two_trick_pony_live_btab.html ]
G|---------------------------------|
D|---------------------------------|
A|-5-5-5-5-5-5-5-5-5-5-5-5-5-5-5-5-|
E|---------------------------------|

G|-------------------------------------------|
D|-------------------------------------------|
A|-----------------4-5------------4----------|
E|-3--5-5--3-5-3-5-------3--5-5-5---5-5--3-3-|

G|-------------------------------------------------------------|
D|-------------------------------------------------------------|
A|-5-5-5-5-5-5-5-5-5-5-5-5-5-5-5-5-5-5-5-5-5-5-5-5-5-5-5-5-5-5-|
E|-------------------------------------------------------------|

(1st chorus ending)
G|-------------------------------------------|
D|-------------------------------------------|
A|-----------------4-5------------4----------|
E|-3--5-5--3-5-3-5-------3--5-5-5---5-5--3-3-|

(2nd/3rd chorus ending)
G|-----------|
D|-----------| (4x)
A|-4---4---5-|
E|---5---3---|
Comments