Sandwich - Two Trick Pony Chords & Tabs

 

Two Trick Pony Chords & Tabs

Sandwich Chords & Tabs

Version: 1 Type: Bass Tab 0 ratings
1 star 2 stars 3 stars 4 stars 5 stars
comments

Two Trick Pony Bass Tab

============================================================================
Title: Two Trick Pony (Bass)
Artist: Sandwich
Tabbed By: Klod_Hudas
Dedicated to: Rogelia "Bulldog" Marapia (Kupal ka)
   Hindi ako nagbabass pero alam ko... Tinuruan ko lang yung bass namin na si Mark
Ian Desquitado Baba... Kung may reklamo kayo o gusto niyo lang ako iadd sa
friendster, heto poh: jc_jubas4@yahoo.com oi pakirate!
============================================================================

Intro:
G--------------------|--------------------|
D--------------------|--------------------|
A----------------4-5-|--------------------|
E--3h5-5-3h5-3h5-----|-3h5-5-3h5-3h5-3-3--|
[ Tab from: http://www.guitartabs.cc/tabs/s/sandwich/two_trick_pony_btab.html ]
G--------------------|-------------|
D--------------------|-------------|
A----------------4-5-|-------------|
E--3h5-5-3h5-3h5-----|-3h5-5-5-5\--|

Verse:
G--------------------|--------------------|
D--------------------|--------------------|
A----------------4-5-|--------------------|Repeat til chorus
E--3h5-5-3h5-3h5-----|-3h5-5-3h5-3h5-3-3--|

Chorus:
G----------------------|
D----------------------|
A-5-5-5-5-5-5-5-5-5-5--|
E----------------------|

G--------------------|--------------------|
D--------------------|--------------------|
A----------------4-5-|--------------------|
E--3h5-5-3h5-3h5-----|-3h5-5-3h5-3h5-3-3--|

Repeat Intro
Repeat Verse
Repeat Chorus

Bridge
G-----------------|
D-----------------|
A--4-----4-----5--|
E-----5-----3-----|

Tapos yung solo ng bass parang verse lang
Tapos ulitin niyo yung sa bridge (I have been waiting for you all night...)

-END-
Comments