Sandwich - Nahuhulog Chords & Tabs

 

Nahuhulog Chords & Tabs

Sandwich Chords & Tabs

Version: 1 Type: Tab 0 ratings
1 star 2 stars 3 stars 4 stars 5 stars
comments

Nahuhulog Tab

Title: Nahuhulog
Artist: Sandwich
Album: Thanks to the Moon's Gravitational Pull
Tabbed by: Sungao
Age: 16             likes: playing guitar   dislikes: not playing guitar
Arranged by: Danstone

Intro

 |----------------------------8----8-h-9-------------------------------|
 |----------------7-----9-----------------9---7-h-9--------------------|
 |-----------5-----------------------------------------5---------------|         X2
 |---5-s-6-------------------------------------------------------------|
 |---------------------------------------------------------------------|
 |---------------------------------------------------------------------|

Verse

 |-------------------------------------------------------------|
 |-------------------------------------------------------------|
 |-------------------------------------------------------------|
 |---3--h--5--5--p--3--3--/--2--2--\--3--3---------------------|
 |---3--h--5--5--p--3--3--/--2--2--\--3--3---------------------|
 |---3--h--5--5--p--3--3--/--2--2--\--3--3---------------------|

Chorus

 |-------------------------------------------------------------|
 |-------------------------------------------------------------|
 |-------------------3---3-------------------------------------|
 |---2-------3------3---3--ring--------------------------------|
 |---2-------3------1---1--------------------------------------|
 |---0-------1-------------------------------------------------|

 |-------------------------------------------------------------|
 |-------------------------------------------------------------|
 |-------------------------------------------------------------|
 |---2-------3------2---2--------------------------------------|
 |---2-------3------2---2--------------------------------------|
 |---0-------1------2---2--------------------------------------|

 |-------------------------------------------------------------|
 |-------------------------------------------------------------|
 |-------------------3---3-------------------------------------|
 |---2-------3------3---3--ring--------------------------------|
 |---2-------3------1---1--------------------------------------|
 |---0-------1-------------------------------------------------|

 |--------------------------------------------------------------|
 |--------------------------------------------------------------|
 |--------------------------------------------------------------|
 |---2-------3------2---2---2---2-------------------------------|
 |---2-------3------2---2---2---2-------------------------------|
 |---0-------1------2---2---2---2-------------------------------|

Intro

Verse

Chorus

Bridge

Part 1
 |-------------------------------------------------------------|
 |-------------------------------------------------------------|
 |-----8-p-7---8-p-7----8-p-7---8-p-7---8-p-7------------------|
 |------------8--------8--------8--------8--------8------------|
 |-------------------------------------------------------------|
 |-------------------------------------------------------------|
                                                                                         
                                                    X3
 |--------------------------------------------------------------|
 |--------------------------------------------------------------|
 |-----8-p-7---8-p-7----8-p-7--10--8-p-7---8-p-7----------------|
 |------------8--------8--------------------8-------8-----------|
 |--------------------------------------------------------------|
 |--------------------------------------------------------------|

 |---------------------------------------------------------------|
 |---------------------------------------------------------------|
 |-----8-p-7---8-p-7----8-p-7---8-p-7---8-p-7--------------------|
 |------------8--------8--------8--------8--------8--------------|
 |---------------------------------------------------------------|
 |---------------------------------------------------------------|
[ Tab from: http://www.guitartabs.cc/tabs/s/sandwich/nahuhulog_tab.html ]
 |--------------------------------------------------------------|
 |--------------------------------------------------------------|
 |-----8-p-7---8-p-7----8-p-7--10-b~~~~~~~----------------------|
 |------------8--------8----------------------------------------|
 |--------------------------------------------------------------|
 |--------------------------------------------------------------|

Part 2
 |----------------------------------------------------------------------|
 |----------------------------------------------------------------------|
 |-------7-b------------------------------------------------------------|
 |----------------------8-b-----------5-b-------------------------------|         X4
 |----------------------------------------------------------------------|
 |----------------------------------------------------------------------|

Part 3
 |-------------------------------------------------------------|
 |-------------------------------------------------------------|
 |-----8-p-7---8-p-7----8-p-7---8-p-7---8-p-7------------------|
 |------------8--------8--------8--------8--------8------------|
 |-------------------------------------------------------------|
 |-------------------------------------------------------------|
                                 p.m                                                     
                    - - - - - - -  X3
 |---------------------------------------------------------------|
 |---------------------------------------------------------------|
 |-----8-p-7---8-p-7----8-p-7--10--8-p-7---8-p-7-----------------|
 |------------8--------8--------------------8-------8------------|
 |---------------------------------------------------------------|
 |---------------------------------------------------------------|
                                 p.m
 |-------------------------------------------------------------|
 |-------------------------------------------------------------|
 |-----8-p-7---8-p-7----8-p-7---8-p-7---8-p-7------------------|
 |------------8--------8--------8--------8--------8------------|
 |-------------------------------------------------------------|
 |-------------------------------------------------------------|
                                  p.m
 |--------------------------------------------------------------|
 |--------------------------------------------------------------|
 |-----8-p-7---8-p-7----8-p-7---8-p-7---8-p-7-------------------|
 |------------8--------8--------8--------8--------8-------------|
 |--------------------------------------------------------------|
 |--------------------------------------------------------------|
                                   p.m

Repeat Part 3 X2

Ending
 |--------------------------------------------------------------------|
 |--------------------------------------------------------------------|
 |----7-7-7-7-7-7-7-7----8-8-8-8-8-8-8-8----10-10-10-10-10-10-10-10---|  X8
 |----7-7-7-7-7-7-7-7----8-8-8-8-8-8-8-8----10-10-10-10-10-10-10-10---|
 |----5-5-5-5-5-5-5-5----6-6-6-6-6-6-6-6-----8--8--8--8--8---8--8--8--|
 |--------------------------------------------------------------------|

 |------------------------------------------------------|
 |------------------------------------------------------|
 |-------------------3----------------------------------|
 |----2------3------3-----------------------------------|
 |----2------3------1-----------------------------------|
 |----0------1------------------------------------------|


Lyrics

Kapit... nakakalula nga wala ng masabitan
Bakit... nakapagtataka wala ng makapitan

Ako ay nahuhulog
Ako ay nahuhulog
Ako ay nahuhulog sayo

Kapit... lumalayo ka ba hindi ko na masabi
Hapit... tumutulin yata baka anong mangyari

Ako ay nahuhulog
Ako ay nahuhullog
Ako ay nahuhulog sayo

Unti unting bumibilis
Mga kamay namamawis
Nauubusan ng lakas
Pano kaya maliligtas


Im not sure in the bridge part bcoz ewan ang hirap eh!
Try to figure it out urself! erasure means wrong and the whole wolrd will smile for you!
"Gotta catch 'em all"
- Pokemon
Excreta Band
Bjorn    kantatero                 future cheer leader
Sungao   kantataero sa likod       likes scuba diving
Khell    kaskasero                 professional bungee jumper
Dhell    baho                      mountain climber from tawi tawi
Johnver  tambolero                 macho dancer along quezon ave.

Others
Danstone   no.1 fan     dandalero
Michael	   supporter    talakitok

Any commnets, suggestions email me at sungao_punk@yahoo.com or contact me 09219762870
Comments