Sandwich - Humanda Ka Chords & Tabs

 

Humanda Ka Chords & Tabs

Sandwich Chords & Tabs

Version: 1 Type: Tab 0 ratings
1 star 2 stars 3 stars 4 stars 5 stars
comments

Humanda Ka Tab

   
hi! its ma first tab.. easy lng man toh... pero la pa nag tab ng ganito eh.. hehehe
/=strum up
\=strum down
h=hammer
drop d para mas maganda

intro(flute yun diba? hehehe)
-----------------------------|
-------12-10-12-13-12-10-12--|
---9-9-----------------------|
-----------------------------|
-----------------------------|
-----------------------------|
ulitin nyo lng according to the song...
[ Tab from: http://www.guitartabs.cc/tabs/s/sandwich/humanda_ka_tab.html ]
verse:
  \ / \ /    \/   \ \ \ \ \
----------------------------------------------------|
----------------------------------------------------|
----------------------------------------------------|
--3-3-3-3-2--2-2--2-2-2-2-2-------------------------|
--3-3-3-3-2--2-2--2-2-2-2-2-------------------------|
--3-3-3-3-2--2-2--2-2-2-2-2-------------------------|

sa verses yun xa gamitin...

chorus:

-------------------------------------------------------------------------|
-------------------------------------------------------------------------|
-------------------------------------------------------------------------|
--7--7-8-8-7h8-7h8-7--7-8-7h8-7h8----------------------------------------|
--7--7-8-8-7h8-7h8-7--7-8-7h8-7h8-----ulit ulitin nyo lng----------------|
--7--7-8-8-7h8-7h8-7--7-8-7h8-7h8----------------------------------------|

tapos na!!!
that's ol!! hehehe


eugenebernabe@yahoo.com email me for more hehehe
or invite me at friendster dennistaonglobo@yahoo.com
Comments