Sandwich - Butterfly Carnival Chords & Tabs

 

Butterfly Carnival Chords & Tabs

Sandwich Chords & Tabs

Version: 4 Type: Tab 0 ratings
1 star 2 stars 3 stars 4 stars 5 stars
comments

Butterfly Carnival Tab

   
Butterfly Carnival by sandwich
Tabbed by Justin Carlo C.
visit me at my friendster account justincarlo88@yahoo.com
yahoo messenger - jco_lead
(Play this song, its nice, parang senti na hindi, parang senti na rock..
basta ganun...)


INTRO
guitar1 (x4)
(Acoustic sim and flanger)
-------------------------------------------|
-------------------------------------------|
--00000--00000-----------------------------|
--22222--55555-----------------------------|
-------------------------------------------|
-------------------------------------------|

guitar 2
(lil distorion)
-------------------------------------------|
---------8-10------------------------------|
--6-9-6-9----------------------------------|
-------------------------------------------|
-------------------------------------------|
-------------------------------------------|

guitar 3
(acoustic sim and wah)
------------------------------------------|
--10----10------10------------------------|
------7---7---7---7-----------------------|
----7-------7-----------------------------|
------------------------------------------|
------------------------------------------|
** must be alert and aware enough in the sequence of the 3 guitar intros
[ Tab from: http://www.guitartabs.cc/tabs/s/sandwich/butterfly_carnival_tab_ver_4.html ]
INTRO2 (x2)
A-D
(heavy distortion, if necessary with fuzz)
------------------------------------------|
------------------------------------------|
------------------------------------------|
-----7------------------------------------|
--7--5------------------------------------|
--5---------------------------------------|


VERSE (x2)
Plucking
A-D
(lil distortion)
-------------------------------------------|
-----------5----------8--7-----------------|
----6--------7----6----7--7----------------|
------7--7----------7--5--5----------------|
--7------5------7------5--5----------------|
--5-------------5--------------------------|

PRE CHORUS (x2)
D-E-C#
(heavy distortion, if necessary with fuzz)
------------------------------------------|
------------------------------------------|
------------------------------------------|
--7--9--6--7------------------------------|
--5--7--4--5------------------------------|
------------------------------------------|

BRIDGE (x2)
(heavy distortion, if necessary with fuzz)
mute strumming
------------------------------------------|
------------------------------------------|
------------------------------------------|
--7--9--6--7------------------------------|
--5--7--4--5------------------------------|
------------------------------------------|

tnx to all who have inspired me play...G0D, my family, bea, friends/classmates, NU 107!
support our band freefall/ support our song tightrope!
freefall@yahoo.com (friendster account) \m/
please rate my tab
**HEY HEY GUYS!! I-download nyo yung "final distance" ni utada hikaru ang ganda!!!
Comments