Sandwich - Butterfly Carnival Chords & Tabs

 

Butterfly Carnival Chords & Tabs

Sandwich Chords & Tabs

Version: 1 Type: Tab 0 ratings
1 star 2 stars 3 stars 4 stars 5 stars
comments

Butterfly Carnival Tab

   
Butterfly Carnival - Sandwich
tabbed by: joshua flores

Intro:

e|-------------------------|
B|------------------8------|
G|--2~~~~~--2/7-7~~---7~~--|
D|-------------------------|
A|--------------|
E|-------------------------|
      
      A                           D
e|-------------------------------------------------------------------|
B|-------------------------------------------------------------------|
G|--------------------------------7777--7---7777--7---77--7----------|
D|----7777--7---7777--7---77--7---7777--7---7777--7---77--7----------|
A|----7777--7---7777--7---77--7---5555------5555------55-------------|
E|----5555------5555------55-----------------------------------------|
 
Verse:
[ Tab from: http://www.guitartabs.cc/tabs/s/sandwich/butterfly_carnival_tab.html ]
guitar 1: A-D (6x)
guitar 2:
      A              D              A              D    
e|-------------------0---0--------|----------------0----0------0-----|
B|----2----2---------3------3-----|-2----2---------3------3------3---|
G|----2-------2------2---------2--|-2-------2------2--2-----2------2-|
D|----2--2-------2---0------------|-2--2-------2---0-----------------|
A|----0---------------------------|-0--------------------------------|
E|--------------------------------|----------------------------------|

Chorus:
      D     E     C#    D       
e|--------------------------------|
B|--------------------------------|
G|----77777\99999/66666\77777-----|
D|----77777\99999/66666\77777-----|
A|----55555\77777/44444\55555-----|
E|--------------------------------|

Bridge: chords same as chorus(palm mute)
Comments