Sandwich - Astroholiday Chords & Tabs

 

Astroholiday Chords & Tabs

Sandwich Chords & Tabs

Version: 1 Type: Tab 0 ratings
1 star 2 stars 3 stars 4 stars 5 stars
comments

Astroholiday Tab

in this song we have to use distortion or metal worker
madali lang pero dapat mabilis ang iyong mga kamay..
here's the tab
tabbed by: carl aguilar

intro/verse 1&2

e|-------------------------------------------------|
b|-------------------------------------------------|
g|-------------------------------------------------|
d|-------------------------------------------------|    
a|-------------------------------------------------|
e|-5--3--5--5--3--5--xxxxx--5--3--5--5--3--5--3--6-|

[ Tab from: http://www.guitartabs.cc/tabs/s/sandwich/astroholiday_tab.html ]
chorus
e|-------------------------|this requires fast picking
b|-------------------------|
g|-------------------------|repeat this 6 times
d|-77777077777-------------|
a|-77777077777-------------|
e|-55555055555-------------|


solo


e|-------------------------------------------------|
b|-------------------------------------------------|
g|-------------------------------------------------| repeat this 3 times
d|-------------------------------------------------|    
a|-------------------------------------------------|
e|-5--3--5--5--3--5--xxxxx--5--3--5--5--3--5-------|


bridge
give me some of that give me some of that
e|-----------|
b|-----------|
g|-----------|
d|-4-6/77----|
a|-4-6/77----|
e|-2-4/55----| repeat this 6 times

thats the song
Comments