Sandler Adam - Ode To My Car Chords & Tabs

 

Ode To My Car Chords & Tabs

Sandler Adam Chords & Tabs

Version: 1 Type: Tab 0 ratings
1 star 2 stars 3 stars 4 stars 5 stars
comments

Ode To My Car Tab

   
Artist : Adam Sandler  
Song: Ode To My Car(Album What The Hell Happened to me)
Tabbed by: John Leadman 
                 
                        
               
   
   
   CHORDS:
   
          
   A     (x02220) or (577655)
   E     (022100)
   Dsus2 (xx0230)
   F#m   (244222)
   
   
   
   
   The chords are played with a reggae beat, something like this:
          A               E               D               E
   E|-x-x-5---x-x-5---x-x-0---x-x-0---x-x-0---x-x-0---x-x-0---x-x-0---|
   B|-x-x-5---x-x-5---x-x-0---x-x-0---x-x-3---x-x-3---x-x-0---x-x-0---|
   G|-x-x-6---x-x-6---x-x-1---x-x-1---x-x-2---x-x-2---x-x-1---x-x-1---|
   D|-----------------------------------------------------------------|
   A|-----------------------------------------------------------------|
   E|-----------------------------------------------------------------|
   
                     or like this:
          A               E               D               E
   E|-x-x-5---x-x-5---x-x-4---x-x-4---x-x-0---x-x-0---x-x-4---x-x-4---|
   B|-x-x-5---x-x-5---x-x-5---x-x-5---x-x-3---x-x-3---x-x-5---x-x-5---|
   G|-x-x-6---x-x-6---x-x-4---x-x-4---x-x-2---x-x-2---x-x-4---x-x-4---|
   D|-----------------------------------------------------------------|
   A|-----------------------------------------------------------------|
   E|-----------------------------------------------------------------|
   
   
   Remember to sing with a stupid Jamaican accent. The words in
   parantheses ( ) are the backing vocals. All the verses and choruses
   have the same chord progression: A E Dsus2 E. 
   
   
   INTRO:
   
   F#m E Dsus2                
                Here we go

   A   E   Dsus2   E            
                     No, no, no

   A     E       Dsus2  E
   (oooh ooooh) (oooooh ooooooh)
   
   
  
[ Tab from: http://www.guitartabs.cc/tabs/s/sandler_adam/ode_to_my_car_tab.html ]
Comments