Sanctus Real - Alone Chords & Tabs

 

Alone Chords & Tabs

Sanctus Real Chords & Tabs

Version: 1 Type: Tab 0 ratings
1 star 2 stars 3 stars 4 stars 5 stars
comments

Alone Tab

   
Song: Alone
Band: Sanctus Real
Tabbed by: Matthew Ivester [matthei@clemson.edu]
Date: 8/10/2004


All the chords are simple power chords...

E: |---|
   |---|
   |---|
   |---|
   |-2-|
   |-0-|

B: |---|
   |---|
   |---|
   |-4-|
   |-2-|
   |---|

F#:|---|
   |---|
   |---|
   |---|
   |-4-|
   |-2-|

G#:|---|
   |---|
   |---|
   |---|
   |-6-|
   |-4-|

C#:|---|
   |---|
   |---|
   |-6-|
   |-4-|
   |---|

This tab is accurate, just listen to the song for the timing and picking.

Intro [x4]

E------------------------------------------------------------
B------------------------------------------------------------
G------------------------------------------------------------
D------------------------------------------------------------
A--------2--------2--2--------2------------------------------ 
E--0--0-----0--0--------0--0-----0--0--2--2--2---------------

Riff 1

E------------------------------------------------------------
B------------------------------------------------------------
G------------------------------------------------------------
D----------------4-------------------------------------------
A-------------2-----2--2h4p2-----4---------------------------
E--0--0--2/4------------------2--2---------------------------

E------------------------------------x--x--x--x--------------
B------------------------------------x--x--x--x--------------
G------------------------------------x--x--x--x--------------
D----------------4-------------------x--x--x--x--------------
A-------------2-----2--2h4p2-----4---x--x--x--x--------------
E--0--0--2/4------------------2--2---x--x--x--x--------------

Riff 2
[ Tab from: http://www.guitartabs.cc/tabs/s/sanctus_real/alone_tab.html ]
E------------------------------------------------------------
B------------------------------------------------------------
G--6--6--8---------------------------------------------------
D-----------6------------------------------------------------
A--------------9---------------------------------------------
E------------------------------------------------------------


[ALL POWER CHORDS]
E                B
True love exist, yes, I know this

F#     G#     F#  G#  F#  G#
My heart was waiting for you

E                B
And when we met I felt my chest

F#     G#     F#  G#  F#
Pound fast, racing for the chance

E            B
To know you, To hold you

F#     G#     F#  G#  F#  G#
To open up and show you

E            B              F#
The way it feels when you know. . .

E       B   F#
You are not alone

E       B   G#                      F#
Know that I will fight the tides to Be together

E        B    F#
When you feel alone

E        B    G#                 F#
Listen to this song to make your heart Feel better

Two hearts entwine, yes, you are mine
And I'll be yours forever
I've done the math, I'm less than half
We're better off together
And I want you here by my side
As much as you are on my mind
When I'm gone you should know

E            B         C#
Rainy Monday feel like Fridays

E            B         C#
When you're smiling at me I can feel

E            B         C#
The space Between us collapsing

E            B         C#
Our love is everlasting

[This whole part just keeps repeating the following chords]

E            G#        F#
Listen to this song
Let it make your heart feel better
Comments