Samsara - Operation Desert Storm Chords & Tabs

 

Operation Desert Storm Chords & Tabs

Samsara Chords & Tabs

Version: 2 Type: Bass Tab 0 ratings
1 star 2 stars 3 stars 4 stars 5 stars
comments

Operation Desert Storm Bass Tab

   
verse
----------------------------------|
----------------------------------|
------------------------------88--|
--0-0-8-0-7-0-0-0-0--10-0-9-0-----|

chrous
----------------------------------|
----------------------------------|
----------------------------------|
--0-0-0-8-7-0-5-7-0-6-3--6-6-6-6--|

-----------------------------------|
-----------------------------------|
-----------------------------------|
--0-0-0-8-7-0-5-7-0-6-3-6/1-1-1-1--|
[ Tab from: http://www.guitartabs.cc/tabs/s/samsara/operation_desert_storm_btab_ver_2.html ]
brigde
a------------------------------------------------------------------------------|
 ------------------------------------------------------------------------------|
 --0-0-8-0-0-7-0-0-5-0-0-4-0-0-5-0-0-7-0-0-8-0-0-7-0-0-5-0-0-5-0-0-5-0-0-5-0-0-|
 ------------------------------------------------------------------------------|

b------------------------------------------------------------------------------|
 ------------------------------------------------------------------------------|
 ------------------------------------------------------------------------------|
 --0-0-8-0-0-7-0-0-5-0-0-4-0-0-5-0-0-7-0-0-8-0-0-7-0-0-5-0-0-5-0-0-5-0-0-5-0-0-|

verse
chrous
verse
chorus
brigde a
brigde b
chorus
verse
chorus
end
Comments